Oops, an error
Loading. Please wait.

Gel bass

version 1
version 1

Whole song

Interactive

4,359 views 6 this week
no commentswrite comment
1 2 3 4 5
3 more votes to show rating
add to favorites
×
Save as Personal and add changes to this tab that will be seen only by you. Learn more ›
×
You can save this tab as Personal to edit and correct it or add notes. All changes will be seen only by you. Learn more »
launch autoscroll
font size
0
reset
guitar tuner
backing track
0:00
0:00
edit
Autoscroll
slow
fast
+/-
esc
set tempo
stop
Author
Difficulty
G|-------------------------|
D|---------------xx-2-3-2-0|Play this 6 times in the Verse
A|2-2-xx-2-x-2-2-----------|
E|-------------------------|

E|--5---0-2-0-3-0|Then play the verse riff twice then:

E|--5------5---0-2-0-3-0-5-0|

G|------------------------------|
D|---1-2-----1-1----1-2-----1---|
A|1-2---1-2---2--1-2---1-2---2-2|Play this twice in the Chorous
E|------------------------------|


G|-------------------------|
D|---------------xx-2-3-2-0|Play this 6 times in the 2nd Verse
A|2-2-xx-2-x-2-2-----------|
E|-------------------------|

E|--5---0-2-0-3-0|Then play the verse riff twice then:

E|--5------5---0-2-0-3-0-5-0|Then play the 2nd chorous

G|------------------------------|
D|---1-2-----1-1----1-2-----1---|
A|1-2---1-2---2--1-2---1-2---2-2|
E|------------------------------|


Now it's time for the Bridge:
E|--5-3-5-3-5-3-5--0-2-0-3-0-5-0|


G|-------------------------|
D|---------------xx-2-3-2-0|Play this 3 times in the Bridge
A|2-2-xx-2-x-2-2-----------|
E|-------------------------|

E|--5---0-2-0-3-0-0-5-0|

Then back to the chorous:
G|------------------------------|
D|---1-2-----1-1----1-2-----1---|
A|1-2---1-2---2--1-2---1-2---2-2|Play this four times in the 3rd Chorous
E|------------------------------|


G|-------------------------|
D|---------------xx-2-3-2-0|Play this 4 times in the Outro
A|2-2-xx-2-x-2-2-----------|
E|-------------------------|

That's how I play Gel on bass. I'll be making a Guitar Pro tab sometime, too. any 
questions, or complaints, e-mail me at mariosparda@yahoo.com, and I'll get back to you.

            
            
Suggest correction
Creating personal tab
Creating personal tab
You can edit any tab online and save it as your Personal.

You can edit, replace or remove any tab part or add personal notes – all changes will be seen only by you.

Personal tabs can be accessed anytime from any device, even offline.
Learn more »
Give kudos to tab author, rate the tab!
1 2 3 4 5
comments
print report bad tab
guest
You may want to rate the tab now too:
select rating
Wanna post a correction for this tab? Suggest correction