Oops, an error
Loading. Please wait.

Gel bass

version 5
version 5

Whole song

Interactive

474 views 1 this week
no commentswrite comment
1 2 3 4 5
2 more votes to show rating
add to favorites
×
Save as Personal and add changes to this tab that will be seen only by you. Learn more ›
×
You can save this tab as Personal to edit and correct it or add notes. All changes will be seen only by you. Learn more »
launch autoscroll
font size
0
reset
guitar tuner
backing track
0:00
0:00
edit
Autoscroll
slow
fast
+/-
esc
set tempo
stop
Author
Difficulty
Collective Soul - Gel

guitar intro (no bass)

intro
G|-----------------|
D|*---------------*|
A|*---------7875--*|
E|-77-7-77---------|

verse         (4x)
G|-----------------|---------------|
D|*---------------*|---------------|
A|*---------7875--*|--0------------|
E|-77-7-77---------|--------02030--|

G|-----------------|---------------|----------------|
D|*---------------*|---------------|----------------|
A|*---------7875--*|--0------------|--0-------------|
E|-77-7-77---------|---------------|--------0203050-|

chorus      (4x)        
G|--------------|
D|*------------*|
A|*----67------*|
E|--67---67-----|

intro/verse/chorus
                
guitar solo
G|-------------|----------------|-----------------|
D|-------------|----------------|*---------------*|
A|-------------|----------------|*-222222--------*| [repeat 1st two bars]
E|-5--3-5--3-5-|-3-5--0203050---|---------0203050-|

chorus
chorus
intro (4x)

            
            
Suggest correction
Creating personal tab
Creating personal tab
You can edit any tab online and save it as your Personal.

You can edit, replace or remove any tab part or add personal notes – all changes will be seen only by you.

Personal tabs can be accessed anytime from any device, even offline.
Learn more »
Give kudos to tab author, rate the tab!
1 2 3 4 5
comments
print report bad tab
guest
You may want to rate the tab now too:
select rating
Wanna post a correction for this tab? Suggest correction