Oops, an error
Loading. Please wait.

Heavens Already Here tab

version 1
version 1

Whole song

Interactive

6,285 views 6 this week
3 commentsread comments
1 2 3 4 5
x 4
add to favorites
×
Save as Personal and add changes to this tab that will be seen only by you. Learn more ›
×
You can save this tab as Personal to edit and correct it or add notes. All changes will be seen only by you. Learn more »
launch autoscroll
font size
0
reset
how to read this tab
guitar tuner
edit
Autoscroll
slow
fast
+/-
esc
set tempo
stop
#----------------------------------PLEASE NOTE---------------------------------#
#This file is the author's own work and represents their interpretation of the #
#song. You may only use this file for private study, scholarship, or research. #
#------------------------------------------------------------------------------#
#
Date: Tue, 23 Jan 1996 16:02:33 -0500
From: Pilgrim 
Subject: Heave's Already Here TAB

>Collective Soul
>Hints, Allegations, and Things Left Unsaid
>Heaven's Already Here:
>
>Transcribed by Khanh Tran
>E-mail: pilgrim@computer.net
>http://www.computer.net/~pilgrim/index.html
>
>[intro riff] x4
>------------------------------------------------
>------------------------------------------------
>----------------------------0-0-----------------
>------------------------0h2---------------------
>--------0h2--2--2h3--3--------------------------
>-3--3-3-----------------------------------------
>
>[verse 1]
>G
>Wake up to a new morning
>C
>Got my babe by my side
>Am			    D
>Now I won't yield to new warnings
>	                     G
>'Cause I got my piece of mind
>
>[chorus]
>D			 C
>Who could bring me heaven 
>			    G
>When Heaven's already here
>
>[fill 1] x2
>---7------8-7------------------
>-8---8--------10-8-------------
>-------------------------------
>-------------------------------
>-------------------------------
>-------------------------------
>
>[chorus]
>
>[verse 2]
>G
>No more living in darkness
>
>[fill 2]
>/7-5-7-3-----------------------
>-------------------------------
>-------------------------------
>-------------------------------
>-------------------------------
>-------------------------------
>
>C
>Now that love lights my way
>
>[fill 3]
>/3-5-3-------------------------
>-------5-----------------------
>-------------------------------
>-------------------------------
>-------------------------------
>-------------------------------
>
>Am			   D	
>I don't need any new changes
>
> Dsus4   		   Dsus4          G
>------		To make me love today
>||||||
>------
>|||.||
>------
>||||..
>______
>
>
>[fill 4]
>-5-7--7b(8)-5------------------
>--------------8----------------
>-------------------------------
>-------------------------------
>-------------------------------
>-------------------------------
>
>[chorus]
>
>[fill 1] x2
>
>[chorus]
>
>[fill 1] x2
>
>[chorus]
>
>[fill 1] x2
>
>[chorus]
>
>[intro riff] 
>
>(end with downstrummed G chord)
>
>

-Pilgrim

Come and visit my Web Page at:
	http://www.computer.net/~pilgrim/index.html
***************************************************************************
*      "When you are courting a nice girl an hour seems like a second.    *
*   When you sit on a red hot cinder a second seems like an hour.         *
*   That's relativity."                    - Albert Einstein              *
***************************************************************************



            
            
Suggest correction
Creating personal tab
Creating personal tab
You can edit any tab online and save it as your Personal.

You can edit, replace or remove any tab part or add personal notes – all changes will be seen only by you.

Personal tabs can be accessed anytime from any device, even offline.
Learn more »
comments
print report bad tab
3 comments total.
0 reply
theguitarinator 16 Jan 02, 2007 02:30 PM

If you listen to the song while you play it sounds a little off of playing G, C, D, and Am but it is very close. Everything else is great 4*

0 reply
theguitarinator 16 Jul 02, 2007 12:28 PM

intro should be like this


>-----------------------------
>-3-3-----3-3-----3-3-----3-3-
>-0-0-----0-0-----0-0-----0-0-
>---------------------0h2----- x4 other than that it sounds good
>-----0h2-----2h3-------------
>3----------------------------

0 reply
GuitarsGood 20 Apr 27, 2013 05:29 PM

Awesome tab, you got all the licks and all.
Great

guest
Wanna post a correction for this tab? Suggest correction