Oops, an error
Loading. Please wait.

Hollywood tab

version 1
version 1

Whole song

Interactive

4,019 views 3 this week
no commentswrite comment
1 2 3 4 5
x 3
add to favorites
×
Save as Personal and add changes to this tab that will be seen only by you. Learn more ›
×
You can save this tab as Personal to edit and correct it or add notes. All changes will be seen only by you. Learn more »
launch autoscroll
font size
0
reset
how to read this tab
guitar tuner
edit
Autoscroll
slow
fast
+/-
esc
set tempo
stop
Author
Collective Soul-Hollywood
2007 Album:  Afterwords
Tuning:  Standard
Tabbed by:  Jeff Martin

Intro:
Guitar 1:          (PM)
|------12-----------:
|--------13--3-6-5--:
|---12-------5-5-5--:
|-10----------------:
|-------------------:
|-------------------:


Guitar 2:
   C    (PM)                   G    (PM)   F   (PM)
|---------------------------------------:
|---------------------------------------:
|-5-5-----------------------------------:  x4
|-5-5--------------5-5-----3-3----------:
|-3-3-3-3-3-3-3-3-5-5-----3-3-----------:
|------------------3-3-3-3-1-1-1-1------:

Verse 1-
Guitar 1: (PM)
|-----------------------------------:
|-5-5-5-5-5-5-5-3-3-3-3-6-6-6-6-----:
|-5-5-5-5-5-5-5-5-5-5-5-5-5-5-5-----: x4
|-----------------------------------:
|-----------------------------------:
|-----------------------------------:

Chorus:
Guitar 1:         (Synth transcibed for guitar??)
|------12--------------------------------:
|--------13------13-12-------------------:
|---12-----------------14-------14-12----: x4
|-10---------14-----------12h14----------:
|----------------------------------------:
|----------------------------------------:
*You could use the intro riff here.

Guitar 2:
   C                             G             F
|---------------------------------------:
|---------------------------------------:
|-5-5-----------------------------------:  x4
|-5-5--------------5-5-----3-3----------:
|-3-3-3-3-3-3-3-3-5-5-----3-3-----------:
|------------------3-3-3-3-1-1-1-1------:

Verse 2-
Guitar 1: Same as Verse 1... add fill #1 (x2) and Fill #2 at end
Fill #1 (this can be used in the chorus too by any guitar even a 3rd)
|-----------------:
|-5-6-8--88-66----:
|-5-5-5--55-55----:
|-----------------:
|-----------------:
|-----------------:

Fill#2 (the final chord leading into chorus)

|-15-15-15-15----:
|-13-13-13-13----:
|-12-12-12-12----:
|----------------:
|----------------:
|----------------:

Guitar 2 (for Verse 2):
|-------------|
|-------------|
|-5-5---------| x4
|-5-5-5-5-3-3-|
|-3-3-5-5-3-3-|
|-----3-3-1-1-|

Chorus 2 (same as chorus 1)

Bridge
Guitar 1:
|----------------------------:
|----------------------------:
|----------------------------:
|----------------------------:
|-2p0-------2-3-2p0-2p0------:
|-----0-1-3--------------3---:

|---------------------------|
|---------------------------|
|---------------------------|
|---------------------3p2-2-|
|-2p0--------2-3-2p0--------|
|-----0-1-3-----------------|
*repeat the 2 phrases one more time

Guitar 1 (at 1:50)
|-------8--------------:
|---8----------6-5-----:
|-5---5---5h7--5-5-----: x4
|----------------------:
|----------------------:
|----------------------:

Final Chorus (use the chords from above)

Fun song... great band... thought I'd get a start on learning these... so any help... TIA!  Peace.

            
            
Suggest correction
Creating personal tab
Creating personal tab
You can edit any tab online and save it as your Personal.

You can edit, replace or remove any tab part or add personal notes – all changes will be seen only by you.

Personal tabs can be accessed anytime from any device, even offline.
Learn more »
Give kudos to tab author, rate the tab!
1 2 3 4 5
comments
print report bad tab
guest
You may want to rate the tab now too:
select rating
Wanna post a correction for this tab? Suggest correction