Oops, an error
Loading. Please wait.

Needs Chords

version 2
version 2

Whole song

Interactive

43 views 9 this week
no commentswrite comment
1 2 3 4 5
3 more votes to show rating
add to favorites
launch autoscroll
font size
0
reset
transpose
0
reset
simplify chords
display chords
guitar tuner
Autoscroll
slow
fast
+/-
esc
set tempo
stop
Help us to improve Ultimate-Guitar.com Take our survey!
×
Author
Difficulty
Tuning
novice
D# G# C# F# A# D#
[Chords used]
     G               Csus2       G/B
E|---3-----|   E|----3----|  E|------3---|
B|---3-----|   B|----3----|  B|------3---|
G|---------|   G|---------|  G|----------|
D|---------|   D|---------|  D|----------|
A|---------|   A|----3----|  A|--2-------|
E|---3-----|   E|---------|  E|----------|

--------------------------------------------------------------------------------------------------------------

[Intro]
   G              Csus2             G/B           Csus2
E|--------3-------------3-------------3-------------------|
B|----------3-------------3--------------3----------3-----|
G|----0-------------0------------0--------------0------0--|
D|--------------------------------------------------------|
A|--------------3-------------2--------------3------------|
E|-3------------------------------------------------------| (4x)

[Play Intro Riff]
All around me i see what weakness has made
Too much tommorow i think I'll take all today
Am I a poison, am I a thorn in the side
am I a picture perfect subject tonight


[Chorus]
(Mute)
G
I don't need nobody

G/B                        Csus2
I don't need the weight of words

                          G/B
to find a way to crash on through

G
i don't need nobody
G/B                       Csus2
i just need to learn the depth

or doubt of faith to fall into


G  Csus2  G/B  Csus2 (2x)



G       Csus2     G/B        Csus2
Here I slumber to awaken my daze
G       Csus2     G/B        Csus2
I find convenience in the savior I save
G       Csus2     G/B        Csus2
Am I a prison, am i a source of dire news
G       Csus2     G/B        Csus2
Am I a picture perfect reason for you


[Chorus]
G
I don't need nobody
G/B                        Csus2  
I don't need the weight of words
            G/B
to crash on thru
G
i don't need nobody
G/B                      Csus2
i just need to learn the depth
or doubt of faith to fall into

Csus2             G
In this time of substitute
Csus2                      G                     Csus2   G
It's my needs I've answered to (all the while)
Csus2               G
And the hope that i invest
Csus2                     G
still turns to signals of distress (all the while)

[Intro riff]
   G              Csus2             G/B           Csus2
E|--------3-------------3-------------3-------------------|
B|----------3-------------3--------------3----------3-----|
G|----0-------------0------------0--------------0------0--|
D|--------------------------------------------------------|
A|--------------3-------------2--------------3------------|
E|-3------------------------------------------------------| (4x)


[Chorus]
G
I don't need nobody
G/B                        Csus2  
I don't need the weight of words
            G/B
to crash on thru
G
i don't need nobody
G/B                      Csus2
i just need to learn the depth
G/B                      Csus2
or doubt of faith to fall into

[orchesta]

G/B   Csus2  G      you're all i need
                     
G/B   Csus2  G      when the water Im in deep
                    
G/B   Csus2  G      you're all i need 
                    
G/B   Csus2  G      now i cry my soul to sleep
                    


G/B   Csus2  G      you're all i need (2x)

G/B   Csus2  G  (4x)
Suggest correction
Give kudos to tab author, rate the tab!
1 2 3 4 5
comments
print report bad tab
guest
You may want to rate the tab now too:
select rating
Wanna post a correction for this tab? Suggest correction