Oops, an error
Loading. Please wait.

Perfect To Stay chords

version 2
version 2

Whole song

530 views 1 this week
no commentswrite comment
1 2 3 4 5
2 more votes to show rating
add to favorites
×
Save as Personal and add changes to this tab that will be seen only by you. Learn more ›
×
You can save this tab as Personal to edit and correct it or add notes. All changes will be seen only by you. Learn more »
launch autoscroll
font size
0
reset
transpose
0
reset
simplify chords
display chords
guitar tuner
edit
Autoscroll
slow
fast
+/-
esc
set tempo
stop
Strumming
There is no strumming pattern for this song yet. and get +5 IQ
-------------------------------------------------------------------------------
                             PERFECT TO STAY - Collective Soul
-------------------------------------------------------------------------------


Tuning: Standard

Chords

Em7: 022033
C9 : x23033
G  : 320033
D  : x00232
E  : 0221xx

Intro/Verse

Em7 C9 G D


Verse Riff

e|---------------------------------------------------------------------------|
B|----10--12-------10--12----------------------------------------------------|
G|-12--------12--------------------------------------------------------------|
D|--------------12-----------------------------------------------------------|
A|---------------------------------------------------------------------------|
E|---------------------------------------------------------------------------|


e|---------------------------------------------------------------------------|
B|----10--12-----------------------------------------------------------------|
G|-12--------12--------------------------------------------------------------|
D|--------------12--12-------------------------------------------------------|
A|---------------------------------------------------------------------------|
E|---------------------------------------------------------------------------|



Chorus

C9 G


Bridge

Am C

            
            
Suggest correction
Creating personal tab
Creating personal tab
You can edit any tab online and save it as your Personal.

You can edit, replace or remove any tab part or add personal notes – all changes will be seen only by you.

Personal tabs can be accessed anytime from any device, even offline.
Learn more »
Give kudos to tab author, rate the tab!
1 2 3 4 5
comments
print report bad tab
guest
Wanna post a correction for this tab? Suggest correction