Oops, an error
Loading. Please wait.

Reunion Tab

version 1
version 1

Whole song

3,496 views 1 this week
no commentswrite comment
1 2 3 4 5
x 6
add to favorites
launch autoscroll
font size
0
reset
how to read this tab
guitar tuner
Autoscroll
slow
fast
+/-
esc
set tempo
stop
Help us to improve Ultimate-Guitar.com Take our survey!
×
Author
Difficulty
intermediate
Collective Soul
Reunion


*Guitar 1
normal tuning

*Guitar 2 (lead)
Tune high e string down to D
Use slide


Riff 1  this is used throught the song
e-----3-----------------3-----------|
B-------3-----------------3---------|
G---0-----0-----------0-----0-------|  repeat 2 x
D---------------2p0-----------------|
A-----------2-3---------------2-3-0-|
E-3-----------------3---------------|


Intro (Guitar 1)

Riff 1 then begin verse


G           Cadd9
Change will come
          G    C G   C
Change is here
G          Cadd9
Love fades out
           G      C G   C
Then love appears
       Em               C
Now my water's turned to wine
          G
And these thoughts I have
  D             C
I now claim as mine
           ******repeat riff 1
I'm coming home


G          Cadd9
Change has been
            G   C G     C
Change will be
G         Cadd9
Time will tell
               G     C G    C
Then time will ease
       Em               C
Now my curtain has been drawn
       G
And my heart can go
      D               C
Where my heart does belong
          ****repeat riff 1
I'm going home

Em C G D Em C G D C C
(Solo over these chords)

Repeat riff 1 after solo
then end with a light rake on a G chord


Solo (Guitar 2) listen to song for timing
d-------12----12--------------------------------------------------------------------------|
B-10\12----12----12\10-------0-3-0-3\5-0-3-0-3\5--------------------12--------------------|
G----------------------10\12---------------------0-2-0-2-2\12----12----12-12--------------|
D-------------------------------------------------------------12--------------------------|
A-----------------------------------------------------------------------------------------|
E-----------------------------------------------------------------------------------------|

d-------------------------------9\10-10\12-9\10-------------------------------------------|
B-------12-------------12----12-----------------10\12------12-----------------------------|
G----12----12-------12----12-----------------------------12---12-12-----------------------|
D-12----------12-12-----------------------------------12----------------------------------|
A-----------------------------------------------------------------------------------------|
E-----------------------------------------------------------------------------------------|

d----------12\14-14\12--------------------------------------------------------------------|
B-------12-------------12-----------------------------------------------------------------|
G----12-------------------12--------------------------------------------------------------|
D-12--------------------------------------------------------------------------------------|
A-----------------------------------------------------------------------------------------|
E-----------------------------------------------------------------------------------------|
Suggest correction
comments
print report bad tab
guest
You may want to rate the tab now too:
select rating
Wanna post a correction for this tab? Suggest correction