Oops, an error
Loading. Please wait.

Satellite tab

version 1
version 1

Whole song

Interactive

5,527 views 18 this week
1 commentread comment
1 2 3 4 5
1 last vote to show rating
add to favorites
×
Save as Personal and add changes to this tab that will be seen only by you. Learn more ›
×
You can save this tab as Personal to edit and correct it or add notes. All changes will be seen only by you. Learn more »
launch autoscroll
font size
0
reset
how to read this tab
guitar tuner
edit
Autoscroll
slow
fast
+/-
esc
set tempo
stop
Author
Difficulty
Collective Soul Satellite
Tabbed By: SLIDEFINGER
Enjoy!

  G      G/E    Gsus4    G/C
|-3-|   |-3-|   |-3-|   |-3-|
|-3-|   |-3-|   |-3-|   |-3-|
|-0-|   |-0-|   |-0-|   |-2-|
|-0-|   |-2-|   |-2-|   |-0-|
|-2-|   |-2-|   |-3-|   |-0-|
|-3-|   |-0-|   |-0-|   |-2-|

Verse
G
Soon a man will kneel to pray
                                G/E
Soon the light will burn our shade
 G
And with the sweet the bitter fades
                                G/E
So take my heart and take your place

Chorus
 Gsus4                  G
Cause I will be your force
                     G/C
And I will be your right
                      G/E      D
And I will watch over you like a satellite

Verse
Soon reason will have rhyme
Soon wisdom will imply
And with courage doubt subsides
So take my heart and take my pride

Chorus
Gsus4                G
And I will be your side
                     G/C
And I will be your might
                       G/E          D
And I will watch over you like a satellite

Verse
River will flow from scenes unknown
I'll guide you through by the love I'll show
And the stars will wish upon the night
That they could have a guiding satellite


(Then joel does like a solo here kind of while Ed plays chords G, G/C, G/E, D, Gsu4, 
after joel finishes the 1st part,(to 8v) Ed plays G, G/C, G/E, D, Gsu4, then chorus

(Let all notes ring, moderatly slow)

Eb|-------------------------------------------------------------------------|
Bb|-b7--5------b7-5-8\7v--5v-3v--12-15-12-10-8v---8---8---7--7-7--8--8------|
Gb|------4v-----------------------------------------------------------------|
Db|-------------------------------------------------------------------------|
Ab|---------------------------------------------10-10-10--9-9-9--12-12-12---|
Eb|----------------------------------------------------------------------15-|

Eb|--------------------------------------------------------------------------|
Bb|-8--12-12-10-10-12-10-8-5-------------------------------------------------|
Gb|--------------------------------------------------------------------------|
Db|--------------------------------------------------------------------------|
Ab|------------------------7-------------------------------------------------|
Eb|10------------------------------------------------------------------------|

Thanks hope you enjoy it, its a great song :) any questions my email is carrot_top7@hotmail.com

            
            
Suggest correction
Creating personal tab
Creating personal tab
You can edit any tab online and save it as your Personal.

You can edit, replace or remove any tab part or add personal notes – all changes will be seen only by you.

Personal tabs can be accessed anytime from any device, even offline.
Learn more »
Give kudos to tab author, rate the tab!
1 2 3 4 5
comments
print report bad tab
1 comment total.
0 reply
roddy1980 10 Feb 27, 2007 08:34 PM

I think that D at the end of the chorus sounds better as Dsus4. Just a thought. Thanks for the tab.

guest
You may want to rate the tab now too:
select rating
Wanna post a correction for this tab? Suggest correction