Oops, an error
Loading. Please wait.

Shine Tab

version 1
version 1
163,239 views 114 this week
12 commentsread comments
1 2 3 4 5
x 34
add to favorites
launch autoscroll
font size
0
reset
how to read this tab
guitar tuner
Autoscroll
slow
fast
+/-
esc
set tempo
stop
Help us to improve Ultimate-Guitar.com Take our survey!
×
Capo
4th fret
[Verse: Riff 1]

     A
e|-----------------------------------------|
B|-----------------------------------------|
G|-----------------------------------------|
D|---9h11------11-----9------6-h7-p6--7----|
A|---0-(0)------0-----0------0-(0)(0)-0----|
E|-----------------------------------------|
     Give me a word / Give me   a     sign

e|------------------------------------------------|
B|------------------------------------------------|
G|------------------------------------------------|
D|---9h11-------------11-----14------7----9---11--|
A|---0-(0)-------------0-----(0)-----0----0----0--|
E|------------------------------------------------|
     Show me where to look / Tell me what will I

     G                                    D
e|-------------------------------------|--------------------------------|
B|-------------------------------------|--------------------------------|
G|---4--------4-----4--4-------4----4--|--7--7--7--7--7--7--7--7--7--7--|
D|---5--5--5--5--5--5--5--5----5----5--|--7--7--7--7--7--7--7--7--7--7--|
A|---5--5--5--5--5--5--5--5----5----5--|--5--0--0--5--0--5--5--0--5--5--|
E|---3--0--0--3--0--3--3--0----3----3--|--------------------------------|
     find /              (What will I     find)


[Bridge before chorus: Riff 2]

     A
e|---------------------------------------|
B|---------------------------------------|
G|---2--2--2--2-(2)-2--2--2--2--2--------|
D|---2--2--2--2-(2)-2--2--2--2--2--------|
A|---0--0--0--3-p0--0--3--3--0--3--------|
E|---------------------------------------|
                                   Yeah!
     A                             D

e|---------------------------------2-----|
B|---------------------------------3-----|
G|---2--2--2--2-(2)-2--2--2--2--2--2-----|
D|---2--2--2--2-(2)-2--2--2--2--2--0-----|
A|---0--0--0--3-p0--0--3--3--0--3--------|
E|---------------------------------------|


[Chorus: Riff 3]

     G        D                     A
e|---3--------2------------------|--0----------------|
B|---0--------3------------------|--2----------------|
G|---0--------2------------------|--2----------------|
D|---0--------0------------------|--2----------------|
A|---2---------------------------|--0----------------|
E|---3---------------------------|-------------------|
     Oh!         Heaven let your    light shine down

[Riff 1]

[Riff 1]
Give me a word
Give me a sign
Show me where to look
Tell me what will I find (What will I find)

[Riff 1]
Lay me on the ground
Fly me in the sky
Show me where to look
Tell me what will I find (What will I find)

[Riff 2] (x2)
[Riff 3] (x4)
Oh! Heaven let your light shine down
Oh! Heaven let your light shine down
Oh! Heaven let your light shine down
Oh! Heaven let your light shine down

[Riff 1]
[Riff 1]
Love is on the water
Love is in the air
Show me where to go
Tell me will love be there (Will love be there)

[Riff 1]
Teach me how to speak
Teach me how to share
Teach me where to love
Tell me will love be there (Will love be there)

[Riff 2] (x2)
[Riff 3] (x4)
Oh! Heaven let your light shine down
Oh! Heaven let your light shine down
Oh! Heaven let your light shine down
Oh! Heaven let your light shine down


[Riff 1]

[Solo]

A A G D
A A G D

[Riff 1]
[Riff 2] (x2)

[Riff 3] (x4)
Oh! Heaven let your light shine down
Oh! Heaven let your light shine down
Oh! Heaven let your light shine down
Oh! Heaven let your light shine down

          G                       D
I'm gonna let it shine, I'm gonna let it shine
A
Heaven's little light is gonna shine on me
       G   D
I said hey hey
A
Heaven's little light is gonna shine on me
G  D
Shine
            [Riff 2] (x2)
Come on and shine

Hi there, Im one of those naughty people that tape stuff off the radio

I taped this and tried to work it out ( SHINE - by Collective Soul that is)
and this is what I came up with:

I think it is tuned down a semitone, then the sixth string tuned
down a further 2 semitones


[Intro/Verse]
(this is from memory)

e|------------------------------|-------------------------------|
B|---5h7----7----5--------------|--5h7---7---/10-----------7----|
G|------------------7--7-7-5-7--|-----------------7-7-7-9-------|
D|------------------------------|-------------------------------|
A|------------------------------|-------------------------------|
E|------------------------------|-------------------------------|

e|------------------------------|----------------------------------|
B|------------------------------|----------------------------------|
G|------------------------------|----------------------------------|
D|------------------------------|----------------------------------|
A|--10------10----10----10---10-|-12--------12-----12-----12----12-|
E|--10--8-8-10--8-10--8-10-8-10-|-12--10-10-12--10-12--10-12-10-12-|


then sometimes that heavy part:

e|---------------------------------------------------------|
B|---------------------------------------------------------|
G|--------------------------------------------------------o|
D|--0--0-0-3-0-3-0-3-0-5---------0--0-0-3-0-3-0-3-0-5--6--o|
A|--0--0-0-3-0-3-0-3-0-5---------0--0-0-3-0-3-0-3-0-5--6---|
E|--0--0-0-3-0-3-0-3-0-5---------0--0-0-3-0-3-0-3-0-5--6---|
                          yeah!

[Chorus]

e|---------------------------------------------------------|
B|---------------------------------------------------------|
G|-5-------------------------------------------------------|
D|-5-----------5------------------0------------------------|
A|-3-----------5------------------0------------------------|
E|-------------5------------------0------------------------|
    woah...        heaven let yor light shine down

There you go, the first two bars I think are right but
there seems to be something else playing aswell like another
string.  The second two bars are my least confident, Ill have to
work on them but i thought i would enclude them anyway. the rest I think
is pretty right and the solo has roughly the same chords as the chorus
but i don't
remeber in what order. If anyone has a more correct version, I would
love to see it


Into computer by Alfredo Ramos


[Riff A] 

[Intro/Verse] 

(Moderately slow rock õ: 75)

I suggest you tune your guitar: low to high: Db Ab Db Ab Bb Eb

e|----------------------------------|------------------------------------|
B|----------------------------------|------------------------------------|
G|-7h9------9----7----5-5-0-5---5-0-|-7h9--9-9-9---9/12---0-5-0-7-0-9-0--|
D|-0----0-0-0--0-0-0--0-0-0-0---0-0-|-0----0-0-0---0--0-0-0-0-0-0-0-0-0--|
A|----------------------------------|------------------------------------|
E|----------------------------------|------------------------------------|

e|-------------------------------|---------------------------------------|
B|-------------------------------|---------------------------------------|
G|-3--0-0-3--0-3-0-3-0-0-3-0-3-0-|-10--0-0-10--0-10-0-10-0-0-10-0-10-0---|
D|-5--0-0-5--0-5-0-5-0-0-5-0-5-0-|-12--0-0-12--0-12-0-12-0-0-12-0-12-0---|
A|-------------------------------|---------------------------------------|
E|-------------------------------|---------------------------------------|


[Riff B]
[Pre-Chorus]

e|-----------------------------|----------------------------------|
B|-----------------------------|----------------------------------|
G|-----------------------------|----------------------------------|
D|-0----------------------5----|--0----------------------5---6----|
A|-0--0-0-3p0-0-3p0-0-3-0-5----|--0--0-0-3p0-0-3p0-0-3-0-5---6----|
E|-0--0-0-3p0-0-3p0-0-3-0-5----|--0--0-0-3p0-0-3p0-0-3-0-5---6----|


[Chorus]
[Riff C]

    Whoa                Heaven let your   light shine down
e|------------------------------------|---------------------------------|
B|------------------------------------|---------------------------------|
G|------------------------------------|-0-----------0-0------0--0-------|
D|-10-----------5--------------5------|-0-----0-----0-0------0--0---0-0-|
A|-10--------10\5--------------5--5-0-|-0-----0------------0-0--0---0-0-|
E|-10--------10\5--------------5--5-0-|-0-----0------------0-0--0-------|
 |                                                                      |
 | Rhythm Guitar (electric w/distortion)                                |
e|-------------------------------------|--------------------------------|
B|-------------------------------------|--------------------------------|
G|------------------------------------|---------------------------------|
D|------------------------------------|---------------------------------|
A|--------------9-(9)b«---------------|-----------------9------12-------|
e|--------------------------------10---|--------------------------------|


[Ridd D] 

[Solo] 


(double time õ: 150)

    elect. w/distortion
e|-----------------------|-----------------------|-----------------------|--|
B|-------10----10--------|-10---10---------10----|-12-10---12-10---12-10-|--|
G|-------10----10--------|-10---10---------10----|-12-10---12-10---12-10-|--|
D|-10-12----12-----10-12-|----12-----10-12----12-|-------12------12------|--|
A|-----------------------|-----------------------|-----------------------|--|
E|-----------------------|-----------------------|-----------------------|--|
                 /\/\/\/

e|------------------------|------------------------------------------------|--|
B|-----12--10-------------|------------------------------------------------|--|
G|-12-12--10----10-------|---------------------------------------10-------|--|
D|-12--------12----------|-----------------------10--10h12-10h12----12----|--|
A|-------------------12\-|-------10--10h12p10h12---12---------------------|--|
e|------------------------|--10h13--12-------------------------------------|--|
                                                           ..................

e|----------------------------10------13p10h13h15p10h13--13-bfull----------13-|
B|-------------10--10h13-10h13--13-10-------------------(13)bf----------------|
G|-10h12-10h12--12-----------------------------------------------------------|
D|---------------------------------------------------------------------------|
A|---------------------------------------------------------------------------|
e|----------------------------------------------------------------------------|
....Ü

e|--13--(13)---10-----10\------------------------13---------15bf(15)----------|
B|----------------13--------------------13---15------15-13------------13--15--|
G|-------------------------13---13-13----------------------------------------|
D|--------------------------x------------------------------------------------|
A|---------------------------------------------------------------------------|
e|----------------------------------------------------------------------------|

e|-13-------------15bf(15)-------|--------------15fb(15)------|--------------|
B|-----15-13-15------------13-15-|-15-13-15-15----------13-15-|--------------|
G|-------------------------------|----------------------------|--------------|
D|-------------------------------|----------------------------|--------------|
A|-------------------------------|----------------------------|--------------|
E|-------------------------------|----------------------------|--------------|

e|--------------16p13-15p-15----13-------|------------------------------------|
B|--15-13-15-13--------------15----15p13-|-14p13----13------------------------|
G|---------------------------------------|-------14----14-12-14p13\10h12p10---|
D|---------------------------------------|------------------------------------|
A|---------------------------------------|------------------------------------|
E|---------------------------------------|------------------------------------|
                  hold...........Ü

e|-------------------|----------------------|----------------------------------|
B|-------------------|----13----------------|---------------10-----------------|
G|--------------12bf-|-------1212fb(12)--10-|---------------10-----------------|
D|---12-x-12-10------|----------------------|---12---12--12-----10---12--------|
A|-------------------|----------------------|----------------------------------|
E|-------------------|----------------------|----------------------------------|

e|--------------------------------|
B|--12b¬------------10------------|
G|--12b¬--10--------10------------|
D|------------12-12-----12--10----|
A|--------------------------------|
E|--------------------------------|


[Riff E]
(original tempo)

e|----------------------------------|------------------------------------|--|
B|----------------------------------|------------------------------------|--|
G|-7h9------9----7----5-5-0-5---5-0-|-7h9--9-9-9---9/12---0-5-0-7-0-9-0--|--|
D|-0----0-0-0--0-0-0--0-0-0-0---0-0-|-0----0-0-0---0--0-0-0-0-0-0-0-0-0--|--|
A|----------------------------------|------------------------------------|--|
E|----------------------------------|------------------------------------|--|

e|-------------------------------|----------------------------------|
B|-------------------------------|----------------------------------|
G|-3--0-0-3--0-3-0-3-0-0-3-0-3-0-|--5--0---5--0-5-0-5-0-0-5-0-5-0---|
D|-5--0-0-5--0-5-0-5-0-0-5-0-5-0-|--5--0-0-5--0-5-0-5-0-0-5-0-5-0---|
A|-------------------------------|----------------------------------|
E|-------------------------------|----------------------------------|


[Riff F - Coda] 
(double time õ:150)

    Let it shine  I'm gonna   let it shine              Heaven let your light
    Hey yeah             Hey   yeah           Shine on me
e|------------------------|-------------------------|------------------------|
B|------------------------|-------------------------|------------------------|
G|------------------------|-------------------------|------------------------|
D|-10-10-10-10-10-10-10\--|-5--5--5--5--5--5--5-----|-0---0--0--0--0--0--0---|
A|-10-10-10-10-10-10-10\--|-5--5--5--5--5--5--5--0--|-0---0--0--0--0--0--0---|
E|-10-10-10-10-10-10-10\--|-5--5--5--5--5--5--5--0--|-0---0--0--0--0--0--0---|

    shine on me               (shine)                              C'mon and
e|------------------------|-----------------------------|---------------------|
B|------------------------|-----------------------------|---------------------|
G|------------------------|-----------------------------|---------------------|
D|-0--0--0--0--0--0--0--0-|-10--10--10--10--10--10--10\-|-5--5--5--5--5--5--5-|
A|-0--0--0--0--0--0--0--0-|-10--10--10--10--10--10--10\-|-5--5--5--5--5--5--5-|
E|-0--0--0--0--0--0--0----|-10--10--10--10--10--10--10\-|-5--5--5--5--5--5--5-|

  shine
e|-------|
B|-------|
G|-------|
D|--5--5-|
A|--5--5-|
E|--5--5-|


Structure:

[Riff A] (x1)

w/ Riff A x 4 [VERSE]
Give me a word, Give me a sign
Show me where to look
Tell me what will I find?
What will I find?

Lay me on the ground and fly me in the sky
Show me where to look
Tell me what will I find?
What will I find

Love is in the water, love is in the air
Show me where to look
Tell me will love be there?
Will love be there?

Teach me how to speak, teach me how to share
Teach me where to go
Tell me will love be there?
Will love be there?

Riff B - Pre-Chorus x 2
Riff C - Chorus (lyrics included w/tab)
Riff D - Guitar Solo
Riff E x 1
Riff F - Coda (lyrics included w/tab)
Riff B - Pre-Chorus x 2

from the august 1994 issue of Guitar World



************************************

| h  hammer on
| p  pull off
| b  bend («,¬,full.etc..)
| /  slide to
| \  slide back

************************************
Suggest correction
comments
print report bad tab
12 comments total. Showing first comments.
0 reply
playing4_Christ 31 Mar 13, 2006 07:51 PM

very nice

0 reply
Frankie Sparks 51 Jan 21, 2007 06:28 PM

Good Tab

+1 reply
hepzibahbaptist 478 Feb 09, 2007 02:59 PM

Tuning is wrong and the intro goes
eb|------------------|
Bb|------------------|
Gb|9h11-11-11-11p-9-7|
Db|0----0---0--0----0|
Ab|------------------|
Db|------------------|

guest
You may want to rate the tab now too:
select rating
Wanna post a correction for this tab? Suggest correction