Oops, an error
Loading. Please wait.

Shine Tab

version 3
version 3
196,228 views 39 this week
23 commentsread comments
1 2 3 4 5
accurate
x 51
add to favorites
launch autoscroll
font size
0
reset
how to read this tab
guitar tuner
Autoscroll
slow
fast
+/-
esc
set tempo
stop
Help us to improve Ultimate-Guitar.com Take our survey!
×
Difficulty
Tuning
novice
D A D G B E
-------------------------------------------------------------------------------
                             SHINE - Collective Soul
-------------------------------------------------------------------------------

By:Lachrymal

Tuned to Dropped Db


[Verse]

    give me a word,    give me a sign...
eb|--------------------------------------------|
Bb|--------------------------------------------|
Gb|-9h11-11-11-9-9-7-7-9h11-11-11-14-14-7-9-11-|
Db|-0-----0--0-0-0-0-0-0-----0--0--0--0-0-0--0-|
Ab|-0-----0--0-0-0-0-0-0-----0--0--0--0-0-0--0-|
Db|-0-----0--0-0-0-0-0-0-----0--0--0--0-0-0--0-|

eb|----------------------------------------------------|
Bb|----------------------------------------------------|
Gb|-5-x-x-5-x-5-5-5-5-5-5-5-7-x-x-7-x-7-7-7-7-7-7-7----|
Db|-5-x-x-5-x-5-5-5-5-5-5-5-7-x-x-7-x-7-7-7-7-7-7-7----|
Ab|-3-x-x-3-x-3-3-3-3-3-3-3-5-x-x-5-x-5-5-5-5-5-5-5----|
Db|----------------------------------------------------|


[Pre-Chorus]

                       yeah...                   yeah...
eb|-------------------------|-------------------------|
Bb|-------------------------|-------------------------|
Gb|-------------------------|-------------------------|
Db|-0-0-0-3p0-0-3p0-0-3h5---|-0-0-0-3p0-0-3p0-0-3h5-6-|
Ab|-0-0-0-3p0-0-3p0-0-3h5---|-0-0-0-3p0-0-3p0-0-3h5-6-|
Db|-0-0-0-3p0-0-3p0-0-3h5---|-0-0-0-3p0-0-3p0-0-3h5-6-|


[Chorus]

    Whoah!!!    heaven let you're light shine down...
eb|-----------------------------------------|
Bb|-----------------------------------------|
Gb|-----------------------------------------|
Db|-5-5-5-5-5-5-5-5-5-5-5-0-0-0-0-0-0-0-0-0-|
Ab|-3-3-3-3-3-5-5-5-5-5-5-0-0-0-0-0-0-0-0-0-|
Db|-----------5-5-5-5-5-5-0-0-0-0-0-0-0-0-0-|


************************************

| x  Dead note
| h  Hammer-on
| p  Pull-off
| b  Bend

************************************
Suggest correction
comments
print report bad tab
23 comments total. Showing first comments.
+1 reply
LedZep_freak20 30 wrote on February 24 2005, 12:00 am

good tab, wheres the solo????

+1 reply
The One 777 50 wrote on April 23 2005, 12:00 am

this tab rocks

+1 reply
trevtones 30 wrote on September 29 2005, 08:40 am

your right about the tuning

guest
You may want to rate the tab now too:
select rating
Please do not post tabs as comments. Select "correction" instead!