Oops, an error
Loading. Please wait.

Shine Bass

version 4
version 4
31,440 views 42 this week
9 commentsread comments
1 2 3 4 5
x 17
add to favorites
launch autoscroll
font size
0
reset
guitar tuner
backing track
0:00
0:00
×
Best way to learn
"Shine"
Autoscroll
slow
fast
+/-
esc
set tempo
stop
Author
Difficulty
Tuning
novice
D# G# C# F#
Ok, after seeing so many different versions of this song 
I had to tab it myself. 
It seems that everyone wanted to make it difficult. 
This is the most simplistic version that I could come up with. 
Just listen to the song and you'll be able to figure 
it all out with this tab. 
The hardest part of this song is the Bridge.

[Verse]
Gb|------------------------------------------------------------|
Db|-----------------------------------------5-xx-5-x-5-5-5-5-5-|
Ab|---5-xx-5-x-5-5-5-5-5-3-xx-3-x-3-3-3-3-3--------------------|
Eb|------------------------------------------------------------|

[Bridge] X2
Gb|---------------------------------------------------------|
Db|----------3-----3-----3-5-------3-----3-----3-5-6--------|
Ab|----5-5-5---5-5---5-5-----5-5-5---5-5---5-5--------------|
Eb|---------------------------------------------------------|

[Chorus] X4
Gb|------------------------------------------------------|
Db|------------------------------------------------------|
Ab|-3-3-3-3-3-3-----------5-5-5-5-5-5-5-5-5-5-5-5--------|
Eb|-------------3-3-3-3-3--------------------------------|

[Guitar Solo]
Gb|---------------------------------------------------------------|
Db|---------------------------------------------------------------|
Ab|---3-3-3-3-3-3-3-3-3---------------------5-5-5-5-5-5-5-5-5-----|
Eb|----------------------3-3-3-3-3-3-3-3-3------------------------|

You can figure out the order of everything by listening to the song! Have fun and please
me a comment if this one helps!
Suggest correction
comments
print report bad tab
9 comments total. Showing first comments.
+1 reply
Harley Fay 654 Jan 11, 2008 11:51 AM

For some reason all of this tab didn't post properly...this song should be tuned down half a step (Eb,Ab,Db,Gb) Thanks
and let me know what you think!

+2 reply
supperbass 30 Jun 17, 2008 09:36 PM

It's almost perfect man. And it helps me and my band. I must say that I like it.

+1 reply
oh_baby! 10 Jul 28, 2008 08:47 AM

works great

guest
You may want to rate the tab now too:
select rating
Wanna post a correction for this tab? Suggest correction