Oops, an error
Loading. Please wait.

Shine Bass Tab

version 5
version 5
1,297 views 3 this week
no commentswrite comment
1 2 3 4 5
please rate
add to favorites
launch autoscroll
font size
0
reset
guitar tuner
Tab Pro tools
  • play this tab
  • loop segment
  • change instrument
  • show fretboard
  • metronome
Autoscroll
slow
fast
+/-
esc
set tempo
stop
Contributor
Difficulty
Tuning
novice
D# G# C# F# A# D#
Shine - Collective Soul

intro/verse     
Gb|---------------|---------------|-----------------|-----------------|
Db|---------------|---------------|-----------------|-----------------|
Ab|------5-55-5-5-|------5-55-5-5-|-3-33-3-3-33-3-3-|-----------------|
Db|-0--0----------|-0--0----------|-----------------|-5-55-5-5-55-5-5-|

verse [2x]

pre-chorus
Gb|-------------------------|-------------------------|--------|
Db|*------------------------|-------------------------|-------*|
Ab|*------------------------|-------------------------|-------*|
Db|-0-00-3p0-0-3p0-0-3p0-5r-|-0-00-3p0-0-3p0-0-3p0-5r-|-6r-----|

chorus                                      (4x)
Gb|---------------------|-----------------------|
Db|*--------------------|----------------------*|
Ab|*-3---3-3------------|------5-------5---5---*|
Db|----------5--55-5555-|-0-00---00-00---0---0--|

intro
verse [2x]
pre-chorus
chorus
intro
guitar solo [2x]
Gb|-----------------------|---------------------|---------------------|
Db|*---------------------*|---------------------|---------------------|
Ab|*-5555-5555-5555-5555-*|-3333-3333-3333-3333-|---------------------|
Db|-----------------------|---------------------|-5555-5555-5555-5555-|

rest
verse [2x]
pre-chorus
chorus
outro (let it shine....) [3 1/2x]
Gb|-----------------------|---------------------|
Db|-----------------------|---------------------|
Ab|-3333-33333------------|---------------------|
Db|------------5555-55555-|-0000-0000-0000-0000-|

pre-chorus
comments
We did not receive enough feedback on this tab! Please rate:
print report bad tab
1 2 3 4 5
I want to post or [tab]
guest
You may want to rate the tab now too:
select rating
Please do not post tabs as comments. Select "correction" instead!