Oops, an error
Loading. Please wait.

Shine Tab

version 5
version 5
27,291 views 1 this week
10 commentsread comments
1 2 3 4 5
accurate
x 11
add to favorites
launch autoscroll
font size
0
reset
how to read this tab
guitar tuner
Tab Pro tools
  • play this tab
  • loop segment
  • change instrument
  • show fretboard
  • metronome
×
Best way to learn
"Shine"
Autoscroll
slow
fast
+/-
esc
set tempo
stop
Contributor
Difficulty
intermediate
Shine by Collective Soul

Hand transcribed on notebook paper and converted to the computer just for you by EvilKal :)

h - hammer on
/ - slide
p - pull off
b - bend
() - harmonics
x - mute

Tuning - Db Ab Db Bb Gb Eb


[Verse 1]
Repeat 3 times
|------------------------------------------------------------|
|------------------------------------------------------------|
|---9h11---11---9---7---7-------9h11---11---14---5---7---9---|
|---0------0----0---0---0-------0------0----0----0---0---0---|
|---0------0----0---0---0-------0------0----0----0---0---0---|
|------------------------------------------------------------|


|-------------------------------------------------------------------------------|
|-------------------------------------------------------------------------------|
|----------------------------------------12--00--12--00--12--00--12--0--12------|
|----10--00--10--00--10--00--10--0--10---12--00--12--00--12--00--12--0--12------|
|----10--00--10--00--10--00--10--0--10---10--00--10--00--10--00--10--0--10------|
|----10--00--10--00--10--00--10--0--10------------------------------------------|


Repeat twice
|-----------------------------------------------------------|
|-----------------------------------------------------------|
|-----------------------------------------------------------|
|---0---0-0-3-0-0-3-0-3-0-5----0---0-0-3-0-0-3-0-3-0-5-6----|
|---0---0-0-3-0-0-3-0-3-0-5----0---0-0-3-0-0-3-0-3-0-5-6----|
|---0---0-0-3-0-0-3-0-3-0-5----0---0-0-3-0-0-3-0-3-0-5-6----|


[Chorus] Repeat 4 times throughout Chorus
|----------------------------------------------|
|----------------------------------------------|
|---5-5-5--------------------------------------|
|---5-5-5---5555555---0000000000000000000------|
|---3-3-3---5555555---0000000000000000000------|
|-----------5555555---0000000000000000000------|


[Verse 2]
Repeat 3 times
|------------------------------------------------------------|
|------------------------------------------------------------|
|---9h11---11---9---7---7-------9h11---11---14---5---7---9---|
|---0------0----0---0---0-------0------0----0----0---0---0---|
|---0------0----0---0---0-------0------0----0----0---0---0---|
|------------------------------------------------------------|


|-------------------------------------------------------------------------------|
|-------------------------------------------------------------------------------|
|----------------------------------------12--00--12--00--12--00--12--0--12------|
|----10--00--10--00--10--00--10--0--10---12--00--12--00--12--00--12--0--12------|
|----10--00--10--00--10--00--10--0--10---10--00--10--00--10--00--10--0--10------|
|----10--00--10--00--10--00--10--0--10------------------------------------------|


Repeat twice
|-----------------------------------------------------------|
|-----------------------------------------------------------|
|-----------------------------------------------------------|
|---0---0-0-3-0-0-3-0-3-0-5----0---0-0-3-0-0-3-0-3-0-5-6----|
|---0---0-0-3-0-0-3-0-3-0-5----0---0-0-3-0-0-3-0-3-0-5-6----|
|---0---0-0-3-0-0-3-0-3-0-5----0---0-0-3-0-0-3-0-3-0-5-6----|


[Chorus]
Repeat 4 times throughout Chorus
|----------------------------------------------|
|----------------------------------------------|
|---5-5-5--------------------------------------|
|---5-5-5---5555555---0000000000000000000------|
|---3-3-3---5555555---0000000000000000000------|
|-----------5555555---0000000000000000000------|


[Fill]

|------------------------------------------------------------|
|------------------------------------------------------------|
|---9h11---11---9---7---7-------9h11---11---14---5---7---9---|
|---0------0----0---0---0-------0------0----0----0---0---0---|
|---0------0----0---0---0-------0------0----0----0---0---0---|
|------------------------------------------------------------|


Repeat throughout solo
|-----------------------------------------|
|-----------------------------------------|
|-----------------------------------------|
|--10-10-10-10-10-10\---555555---000000---|
|--10-10-10-10-10-10\---555555---000000---|
|--10-10-10-10-10-10\---555555---000000---|


[Solo](double time)

|---------------------------------------------------------------------------------|
|--------10---10-------10---10-------10---12-10---12-10---12-10----12-10----------|
|--------10---10-------10---10-------10---12-10---12-10---12-10-12-12-10---10-----|
|---10-12---12----10-12---12----10-12---12------12------12------12-------12-------|
|-----------------------------------------------------------------------------12/-|
|---------------------------------------------------------------------------------|


|---------------------------------------------------------------------------------|
|--------------------------------------------------------------10----10h12-10h12--|
|--------------------------------------------10----10h12-10h12----12--------------|
|--------------------------10----10h12-10h12----12--------------------------------|
|--------10----10h12p10h12----12--------------------------------------------------|
|--10h13----12--------------------------------------------------------------------|


|--10-------13p10h13h15p10h13--13b---13-13-(13)-10----10\----------------13-------|
|-----13-10-------------------(13b)----------------13--------------13-15----15-13-|
|---------------------------------------------------------13-13-13----------------|
|---------------------------------------------------------------------------------|
|---------------------------------------------------------------------------------|
|---------------------------------------------------------------------------------|


|--15b-------13----------15b-------------------15b-------------------16p13-15p----|
|------13-15----15-13-15-----13-15-15-13-15-15-----13-15-15-13-15-13--------------|
|---------------------------------------------------------------------------------|
|---------------------------------------------------------------------------------|
|---------------------------------------------------------------------------------|
|---------------------------------------------------------------------------------|


|--15----13-----------------------------------------------------------------------|
|-----15----15p13-14p13----13-----------------------------------13----------------|
|-----------------------14----14-12-14p13\10h12p10----------12b----12-12b-10------|
|--------------------------------------------------12-12-10-----------------------|
|---------------------------------------------------------------------------------|
|---------------------------------------------------------------------------------|


|-----------------------------------------|
|----------10------12b---------10---------|
|----------10------12b-10------10---------|
|--12-12-12---10-12-------12-12---12-10---|
|-----------------------------------------|
|-----------------------------------------|


[Verse 3]
Repeat 3 times
|------------------------------------------------------------|
|------------------------------------------------------------|
|---9h11---11---9---7---7-------9h11---11---14---5---7---9---|
|---0------0----0---0---0-------0------0----0----0---0---0---|
|---0------0----0---0---0-------0------0----0----0---0---0---|
|------------------------------------------------------------|


|-------------------------------------------------------------------------------|
|-------------------------------------------------------------------------------|
|----------------------------------------12--00--12--00--12--00--12--0--12------|
|----10--00--10--00--10--00--10--0--10---12--00--12--00--12--00--12--0--12------|
|----10--00--10--00--10--00--10--0--10---10--00--10--00--10--00--10--0--10------|
|----10--00--10--00--10--00--10--0--10------------------------------------------|


Repeat twice
|-----------------------------------------------------------|
|-----------------------------------------------------------|
|-----------------------------------------------------------|
|---0---0-0-3-0-0-3-0-3-0-5----0---0-0-3-0-0-3-0-3-0-5-6----|
|---0---0-0-3-0-0-3-0-3-0-5----0---0-0-3-0-0-3-0-3-0-5-6----|
|---0---0-0-3-0-0-3-0-3-0-5----0---0-0-3-0-0-3-0-3-0-5-6----|


[Chorus] Repeat 4 times throughout Chorus
|----------------------------------------------|
|----------------------------------------------|
|---5-5-5--------------------------------------|
|---5-5-5---5555555---0000000000000000000------|
|---3-3-3---5555555---0000000000000000000------|
|-----------5555555---0000000000000000000------|


[Outro]
Repeat 4 times
|-----------------------------------------|
|-----------------------------------------|
|-----------------------------------------|
|--10-10-10-10-10-10\---555555---000000---|
|--10-10-10-10-10-10\---555555---000000---|
|--10-10-10-10-10-10\---555555---000000---|


Repeat twice
|-----------------------------------------------------------|
|-----------------------------------------------------------|
|-----------------------------------------------------------|
|---0---0-0-3-0-0-3-0-3-0-5----0---0-0-3-0-0-3-0-3-0-5-6----|
|---0---0-0-3-0-0-3-0-3-0-5----0---0-0-3-0-0-3-0-3-0-5-6----|
|---0---0-0-3-0-0-3-0-3-0-5----0---0-0-3-0-0-3-0-3-0-5-6----|
comments
print report bad tab
10 comments total. Showing first comments.
0 reply
ken marx wrote on January 7 2006, 12:32 am

great tab keep it up

0 reply
theguitarinator wrote on January 5 2007, 05:56 pm

sounds right but watch them play it live, not even close

+1 reply
EvilKal wrote on January 5 2007, 09:38 pm

Never seen them live. It sounds right, and it's still the same notes. They just play a different string :P

I want to post or [tab]
guest
You may want to rate the tab now too:
select rating
Please do not post tabs as comments. Select "correction" instead!