Oops, an error
Loading. Please wait.
2,341 views 9 this week
5 commentsread comments
1 2 3 4 5
x 6
add to favorites
×
Save as Personal and add changes to this tab that will be seen only by you. Learn more ›
×
You can save this tab as Personal to edit and correct it or add notes. All changes will be seen only by you. Learn more »
launch autoscroll
font size
0
reset
guitar tuner
backing track
0:00
0:00
edit
Autoscroll
slow
fast
+/-
esc
set tempo
stop
Author
Difficulty
Shine - collective soul - bass - standard tuning 

If u spot any errors just email me at: jmandog46@hotmail.com

Verse

G|------------------------------------------------------------|
D|-----------------------------------------4-xx-4-x-4-4-4-4-4-|
A|---4-xx-4-x-4-4-4-4-4-2-xx-2-x-2-2-2-2-2--------------------|
E|------------------------------------------------------------|

Bridge X2
G|---------------------------------------------------------|
D|----------2-----2-----2-4-------2-----2-----2-4-5--------|
A|----4-4-4---4-4---4-4-----4-4-4---4-4---4-4--------------|
E|---------------------------------------------------------|


Chorus X4
G|------------------------------------------------------|
D|------------------------------------------------------|
A|-2-2-2-2-2-2-----------4-4-4-4-4-4-4-4-4-4-4-4--------|
E|-------------2-2-2-2-2--------------------------------|


Guitar Solo
G|---------------------------------------------------------------|
D|---------------------------------------------------------------|
A|---2-2-2-2-2-2-2-2-2---------------------4-4-4-4-4-4-4-4-4-----|
E|----------------------2-2-2-2-2-2-2-2-2------------------------|

listen to the song to figure out the order of things

            
            
Suggest correction
Creating personal tab
Creating personal tab
You can edit any tab online and save it as your Personal.

You can edit, replace or remove any tab part or add personal notes – all changes will be seen only by you.

Personal tabs can be accessed anytime from any device, even offline.
Learn more »
comments
print report bad tab
5 comments total. Showing first comments.
0 reply
kameus 33 Aug 21, 2013 01:49 AM

sorry guys the 5's on the a in the chorus are suppose to be 4's

0 reply
mckayniac 33 May 24, 2015 06:27 PM

The ONLY correct tab for this song on this site!

+1 reply
Damname 20 Jun 12, 2015 07:44 PM

isnt this in drop d?

guest
You may want to rate the tab now too:
select rating
Wanna post a correction for this tab? Suggest correction