Oops, an error
Loading. Please wait.

Shine Tab

version 6
version 6
199,147 views 570 this week
19 commentsread comments
1 2 3 4 5
excellent!
x 92
add to favorites
launch autoscroll
font size
0
reset
how to read this tab
guitar tuner
Autoscroll
slow
fast
+/-
esc
set tempo
stop
Help us to improve Ultimate-Guitar.com Take our survey!
×
Contributor
================================================================
                       Shine- Collective Soul
================================================================
                    As recorded by Collective Soul
(From the 1994 Album Hints, Allegations, and Things Left Unsaid)

Words and Music by Collective Soul


Tuning: (Db Ab Db Gb Bb eb) - "Drop D half a step down or 'Drob Db'"*

*For those who do not know how to tune to drop Db,
tune the low e down to d, then fret it and 1st fret
and tune it down until it sounds like a D, then 
for the A string also fret it at 1st fret and tune
it down until it sounds like an A, and so on until
all strings are tuned.


[Intro riff]

(Light distortion)
eb----------------------------------------------------------------------|
Bb----------------------------------------------------------------------|
Gb---9h11----------11---11--9--7--7--7---------9h11-------11--11---14---|
Db---0-----0--0-----0----0--0--0--0--0--0--0---0----0--0---0---0----0---|
Ab---0-----0--0-----0----0--0--0--0--0--0--0---0----0--0---0---0----0---|
Db----------------------------------------------------------------------|
           .  .                         .  .        .  .

eb-------------------------------------------------------------------------------------|
Bb-------------------------------------------------------------------------------------|
Gb--7--7---9---11----------------------------------------------------------------------|
Db--0--0---0----0---10------10----10---10-----10---10----5------5----5---5-----5---5---| Repeat
Ab--0--0---0----0---10--0-0-10--0-10-0-10-0-0-10-0-10-0--5------5----5---5-----5---5---| as needed
Db------------------10------10----10---10-----10---10----5--0-0-5--0-5-0-5-0-0-5-0-5-0-|


[Pre-Chorus]

(Heavy Distortion)
eb------------------------------------------------------------|
Bb------------------------------------------------------------|
Gb------------------------------------------------------------| Repeat twice
Db--0--0-0-3-0-0-3-0-0-3-0-5----0--0-0-3-0-0-3-0-0-3-0-5---6--|
Ab--0--0-0-3-0-0-3-0-0-3-0-5----0--0-0-3-0-0-3-0-0-3-0-5---6--|
Db--0--0-0-3-0-0-3-0-0-3-0-5----0--0-0-3-0-0-3-0-0-3-0-5---6--|


[Chorus]

(Moderate to High Distortion)
eb------------------------------------------------------------|
Bb------------------------------------------------------------|
Gb-----------------------------------------11----/---14-------| Repeat 4x
Db--10----10--10--4h-5----5-5-5--0----0--0--0---0-0---0--0-0--|
Ab--10----10--10--5--5----5-5-5--0----0--0--0---0-0---0--0-0--|
Db--10----10--10--5--5----5-5-5--0----0--0--0---0-0---0--0-0--|

*Slide the 11 on the Gb string to the 14 and let them ring

[Intro riff]

(Light distortion)
eb----------------------------------------------------------------------|
Bb----------------------------------------------------------------------|
Gb---9h11----------11---11--9--7--7--7---------9h11-------11--11---14---|
Db---0-----0--0-----0----0--0--0--0--0--0--0---0----0--0---0---0----0---|
Ab---0-----0--0-----0----0--0--0--0--0--0--0---0----0--0---0---0----0---|
Db----------------------------------------------------------------------|
           .  .                         .  .        .  .

eb-------------------------------------------------------------------------------------|
Bb-------------------------------------------------------------------------------------|
Gb--7--7---9---11----------------------------------------------------------------------|
Db--0--0---0----0---10------10----10---10-----10---10----5------5----5---5-----5---5---|
Ab--0--0---0----0---10--0-0-10--0-10-0-10-0-0-10-0-10-0--5------5----5---5-----5---5---|
Db------------------10------10----10---10-----10---10----5--0-0-5--0-5-0-5-0-0-5-0-5-0-|


[Pre-Chorus]

(Heavy Distortion)
eb------------------------------------------------------------|
Bb------------------------------------------------------------|
Gb------------------------------------------------------------| Repeat twice
Db--0--0-0-3-0-0-3-0-0-3-0-5----0--0-0-3-0-0-3-0-0-3-0-5---6--|
Ab--0--0-0-3-0-0-3-0-0-3-0-5----0--0-0-3-0-0-3-0-0-3-0-5---6--|
Db--0--0-0-3-0-0-3-0-0-3-0-5----0--0-0-3-0-0-3-0-0-3-0-5---6--|


[Chorus]

(Moderate to High Distortion)
eb------------------------------------------------------------|
Bb------------------------------------------------------------|
Gb-----------------------------------------11----/---14-------| Repeat 4x
Db--10----10--10--4h-5----5-5-5--0----0--0--0---0-0---0--0-0--|
Ab--10----10--10--5--5----5-5-5--0----0--0--0---0-0---0--0-0--|
Db--10----10--10--5--5----5-5-5--0----0--0--0---0-0---0--0-0--|

[Intro riff]

(Light distortion)
eb----------------------------------------------------------------------|
Bb----------------------------------------------------------------------|
Gb---9h11----------11---11--9--7--7--7---------9h11-------11--11---14---|
Db---0-----0--0-----0----0--0--0--0--0--0--0---0----0--0---0---0----0---|
Ab---0-----0--0-----0----0--0--0--0--0--0--0---0----0--0---0---0----0---|
Db----------------------------------------------------------------------|
           .  .                         .  .        .  .

eb-------------------------------------------------------------------------------------|
Bb-------------------------------------------------------------------------------------|
Gb--7--7---9---11----------------------------------------------------------------------|
Db--0--0---0----0---10------10----10---10-----10---10----5------5----5---5-----5---5---|
Ab--0--0---0----0---10--0-0-10--0-10-0-10-0-0-10-0-10-0--5------5----5---5-----5---5---|
Db------------------10------10----10---10-----10---10----5--0-0-5--0-5-0-5-0-0-5-0-5-0-|


[Solo]

Background Chords:

eb--2--|     eb--3--|     eb--3--|
Bb--3--|     Bb--3--|     Bb--3--|
Gb--2--|x24  Gb--0--|x12  Gb--0--|x12  Repeat as needed
Db--0--|     Db--2--|     Db--0--|
Ab--0--|     Ab--3--|     Ab--5--|
Db--0--|     Db-----|     Db--5--|


[Guitar Solo]

eb------------------------------------------------|
Bb--------10----10~--------10----10~--------10----|
Gb--------10----10~--------10----10~--------10----|
Db--10-12----12------10-12----12------10-12----12-|
Ab------------------------------------------------|
Db------------------------------------------------|

eb------------------------------------------------|
Bb--12-10-----------------------------------------|
Gb--12-10----12-10----12-10----12-10----10~-------|
Db-----------12-10----12-10----12-10----10~-------|
Ab--------12-------12-------12-------12------12\--|
Db------------------------------------------------|

eb--------------------------------------------------------------------------------|
Bb------------------------------------------------------------------------10----10|
Gb----------------------------------------------------10----10h-12-10h-12----12---|
Db--------------------------------10----10h-12-10h-12----12-----------------------|
Ab-----------------10h-12p-10h-12----12-------------------------------------------|
Db--10h-13p-10h-13----------------------------------------------------------------|

eb--13/-13p-10-13g13pb------13pbr--L-10----10\-------|
Bb--------------------------------------13--------13-|
Gb----------------------------------------------0----|
Db---------------------------------------------------|
Ab---------------------------------------------------|
Db---------------------------------------------------|

eb-----13-------15pbr-15-------13----------15pbr-15p-13-------|
Bb--15----15-13----------13-15----15-13-15--------------13-15-|
Gb------------------------------------------------------------|
Db------------------------------------------------------------|
Ab------------------------------------------------------------|
Db------------------------------------------------------------|

eb--------------15g15pbr-15-------------------16-13-15-13----13-------|
Bb--15-13-15-15-------------13-15-15-13-15-13-------------15----15-13-|
Gb--------------------------------------------------------------------|
Db--------------------------------------------------------------------|
Ab--------------------------------------------------------------------|
Db--------------------------------------------------------------------|

eb--------------------------------------------------------------------------------|
Bb--14-13----13---------------------------------------------------13--------------|
Gb--------14----14-13-14-13S-10-12-10-------------12b--Lpb----Lpb----12pb-12pbr-12|
Db------------------------------------12-10-12-10---------------------------------|
Ab--------------------------------------------------------------------------------|
Db--------------------------------------------------------------------------------|

eb--------------------------------------------------------------|
Bb------10----10~----------12g12----12p-10-------10~------------|
Gb------10----10~----------12g12pbr-12p-10-------10~------------|
Db--12-----12-----12-10-12-----------------12-12------12-10h-12-|
Ab--------------------------------------------------------------|
Db--------------------------------------------------------------|


[Intro riff]

(Light distortion)
eb----------------------------------------------------------------------|
Bb----------------------------------------------------------------------|
Gb---9h11----------11---11--9--7--7--7---------9h11-------11--11---14---|
Db---0-----0--0-----0----0--0--0--0--0--0--0---0----0--0---0---0----0---|
Ab---0-----0--0-----0----0--0--0--0--0--0--0---0----0--0---0---0----0---|
Db----------------------------------------------------------------------|
           .  .                         .  .        .  .

eb-------------------------------------------------------------------------------------|
Bb-------------------------------------------------------------------------------------|
Gb--7--7---9---11----------------------------------------------------------------------|
Db--0--0---0----0---10------10----10---10-----10---10----5------5----5---5-----5---5---|
Ab--0--0---0----0---10--0-0-10--0-10-0-10-0-0-10-0-10-0--5------5----5---5-----5---5---|
Db------------------10------10----10---10-----10---10----5--0-0-5--0-5-0-5-0-0-5-0-5-0-|


[Pre-Chorus]

(Heavy Distortion)
eb------------------------------------------------------------|
Bb------------------------------------------------------------|
Gb------------------------------------------------------------| Repeat twice
Db--0--0-0-3-0-0-3-0-0-3-0-5----0--0-0-3-0-0-3-0-0-3-0-5---6--|
Ab--0--0-0-3-0-0-3-0-0-3-0-5----0--0-0-3-0-0-3-0-0-3-0-5---6--|
Db--0--0-0-3-0-0-3-0-0-3-0-5----0--0-0-3-0-0-3-0-0-3-0-5---6--|


[Chorus]

(Moderate to High Distortion)
eb------------------------------------------------------------|
Bb------------------------------------------------------------|
Gb-----------------------------------------11----/---14-------| Repeat 4x
Db--10----10--10--4h-5----5-5-5--0----0--0--0---0-0---0--0-0--|
Ab--10----10--10--5--5----5-5-5--0----0--0--0---0-0---0--0-0--|
Db--10----10--10--5--5----5-5-5--0----0--0--0---0-0---0--0-0--|


Then the [Outro]

eb--------------------------------------------------------------------------|
Bb--------------------------------------------------------------------------|
Gb--------------------------------------------------------------------------|
Db--10-10-10-10-10-10-10-10-5-5-5-5-5-5-5-5-0-0-0-0-0-0-0-0-0-0-0-0-0-0-0-0-|
Ab--10-10-10-10-10-10-10-10-5-5-5-5-5-5-5-5-0-0-0-0-0-0-0-0-0-0-0-0-0-0-0-0-|
Db--10-10-10-10-10-10-10-10-5-5-5-5-5-5-5-5-0-0-0-0-0-0-0-0-0-0-0-0-0-0-0-0-|


Then [Pre-Chorus] riff

(Heavy Distortion)
eb------------------------------------------------------------|
Bb------------------------------------------------------------|
Gb------------------------------------------------------------| Repeat twice
Db--0--0-0-3-0-0-3-0-0-3-0-5----0--0-0-3-0-0-3-0-0-3-0-5---6--|
Ab--0--0-0-3-0-0-3-0-0-3-0-5----0--0-0-3-0-0-3-0-0-3-0-5---6--|
Db--0--0-0-3-0-0-3-0-0-3-0-5----0--0-0-3-0-0-3-0-0-3-0-5---6--|

**********************************************

h - hammer on
/ - slide
p - pull off
br - bend-Release
pb - pre-Bend
pbr - pre-Bend-Release
b - bend
x - mute
g - grace note
~ - Tremelo
. - palm mute
L - tied note

**********************************************
And that's it! Please rate and comment!
Suggest correction What's this?
You can suggest a correction to this tab. Community and Mods will review your correction and vote to approve or reject it.
comments
print report bad tab
19 comments total. Showing first comments.
+4 reply
80smetalfreke 868 wrote on April 16 2010, 03:52 pm

its perfect and thank god you have the solo and also im glad to figure out im not the only one that plays the open a string as well in the riff.

+3 reply
warnesie 26 wrote on May 14 2010, 12:37 am

Pretty darn good man. I used to really dig this song back in the day, but only thought about playing it just now when it came on the radio. Thanks.

+1 reply
Mainer 4,891 wrote on November 14 2010, 05:49 pm

heard this song on VH1's greatest 90's songs, and loved it. great tabs

I want to post or [tab]
guest
You may want to rate the tab now too:
select rating
Please do not post tabs as comments. Select "correction" instead!