Oops, an error
Loading. Please wait.
We have an official Shine tab made by UG professional guitarists. Check out the tab »
×

Shine Acoustic tab

13,620 views 15 this week
no commentswrite comment
1 2 3 4 5
x 4
add to favorites
×
Save as Personal and add changes to this tab that will be seen only by you. Learn more ›
×
You can save this tab as Personal to edit and correct it or add notes. All changes will be seen only by you. Learn more »
launch autoscroll
font size
0
reset
how to read this tab
guitar tuner
backing track
0:00
0:00
edit
Autoscroll
slow
fast
+/-
esc
set tempo
stop
Difficulty
----------------------------------------------------------------------------
                             Shine - Collective Soul
----------------------------------------------------------------------------


Tabbed by: Matt K
Email: lssb06@gmail.com

Tuning: Standard (EADGBe)


I saw this performed live and this is what Ed was doing on the acoustic from what I 
tell. This is my first tab so please let me know if there are any corrections or comments. 
to the song for timing.

Intro


e|-0h2-2--0-------|-0h2-2--5----0-2|
B|-3---3--3--333--|-3---3--3-33-3-3|
G|-2---2--2--222--|-2---2--2-22-2-2|
D|-0---0--0--000--|-0---0--0-00-0-0|
A|----------------|----------------|
E|----------------|----------------|


Chorus


e|----------------|----------------|----------------|----------------|
B|----------------|----------------|----------------|----------------|
G|5----5---5---5--|5---5-7---------|----------------|----------------|
D|5----5---5---5--|5---5-7---------|5----5---5---5--|5---5-----------|
A|3-00-3-0-3-0-300|3-0-3-5---------|5----5---5---5--|5---5-----------|
E|----------------|----------------|3-00-3-0-3-0-300|3-0-3-----------|


I am not going to even attempt the solo. Out of my league. Hope you enjoy. Great song 
easy to play.

| /  slide up
| \  slide down
| h  hammer-on
| p  pull-off
| ~  vibrato
| +  harmonic
| x  Mute note
============================================================================
Suggest correction
Creating personal tab
Creating personal tab
You can edit any tab online and save it as your Personal.

You can edit, replace or remove any tab part or add personal notes – all changes will be seen only by you.

Personal tabs can be accessed anytime from any device, even offline.
Learn more »
comments
print report bad tab
guest
Wanna post a correction for this tab? Suggest correction