Oops, an error
Loading. Please wait.

Sister Dont Cry Tab

732 views 3 this week
3 commentsread comments
1 2 3 4 5
2 more votes to show rating
add to favorites
launch autoscroll
font size
0
reset
how to read this tab
guitar tuner
×
Best way to learn
"Sister Dont Cry"
Autoscroll
slow
fast
+/-
esc
set tempo
stop
#----------------------------------PLEASE NOTE---------------------------------#
#This file is the author's own work and represents their interpretation of the #
#song. You may only use this file for private study, scholarship, or research. #
#------------------------------------------------------------------------------#
#
Date: Tue, 23 Jan 1996 16:11:07 -0500
From: Pilgrim 
Subject: Sister Don't Cry TAB

Collective Soul
Hints, Allegations, and Things Left Unsaid
Sister Don't Cry:

Transcribed by Khanh Tran
E-mail: pilgrim@computer.net
http://www.computer.net/~pilgrim/index.html

[intro] (piano arranged for guitar)

E    A       | E   A
-------------|--------------------------------------
-------------|--------------------------------------
-------------|--------------------------------------
-------------|--------------------------------------
-----0-----0-|-----0-----0--------------------------
-0-------3---|-0-------3----------------------------

[verse 1] (with intro riff)
E			   A
Overseas through the air
             E		     A	
Touched your heart down with care
E			       A
All the thoughts left behind
	    E		A
Soon will catch you in time


[bridge 1]
F#			         A
Well, if I could, you know I would
				E
Let salvation reign on you
F#
So, won't you push away
A
All this pain that you've been through


[chorus] (played x2)
      E
Yeah, Sister don't cry
A
Sister don't cry no more
G		 D	   E	
Sister don't cry anymore


(intro riff is played)


[verse 2] (played with intro riff)
E				 A
While the scenes shuffle 'round
	   E		    A
Let your world anchor down
E				  A
Pull your heart from your sleeve
	E		A
First react then believe


[bridge 2]
F#			   A
You won't always get thunder
			    E	
To warn you of storms ahead
F#
So bury all the pain
	  A
And get on with your life again


[chorus]


[bridge 3]
A
Conquer some serenity
					 E
Lay yourself in fields of poetry
A
Close you eyes to all you see
					E
Lay your weary head here with me
	        B
Oh, here with me


(intro riff is played)


[chorus]

-Pilgrim

Come and visit my Web Page at:
	http://www.computer.net/~pilgrim/index.html
***************************************************************************
*      "When you are courting a nice girl an hour seems like a second.    *
*   When you sit on a red hot cinder a second seems like an hour.         *
*   That's relativity."                    - Albert Einstein              *
***************************************************************************


Suggest correction
Give kudos to tab author, rate the tab!
1 2 3 4 5
comments
print report bad tab
3 comments total.
0 reply
xxZeroxx 37 Aug 12, 2006 09:47 AM

Sounds good man

0 reply
rygor42 31 Sep 23, 2011 03:17 PM

3rd fret should be 4th fret on the low E

0 reply
Sabbath Black 30 May 26, 2013 05:53 PM


-------------|--------------------------------------
-------------|--------------------------------------
-------------|--------------------------------------
-------------|--------------------------------------
-----0-----0-|-----0-----0--------------------------
-0-------3---|-0-------3----------------------------
should be
-------------|--------------------------------------
-------------|--------------------------------------
-------------|--------------------------------------
-------------|--------------------------------------
-----0-------|-----0-----0--------------------------
-0-------4/5-|-0-------3----------------------------

guest
You may want to rate the tab now too:
select rating
Wanna post a correction for this tab? Suggest correction