Oops, an error
Loading. Please wait.

The World I Know Tab

version 2
version 2

Whole song

Interactive

159,274 views 282 this week
17 commentsread comments
1 2 3 4 5
x 53
add to favorites
launch autoscroll
font size
0
reset
how to read this tab
guitar tuner
Autoscroll
slow
fast
+/-
esc
set tempo
stop
Help us to improve Ultimate-Guitar.com Take our survey!
×
    D Dsus4   D(add9)  A   G  C
e|--2--3------0------------3--0--|
B|--3--3------3--------2---3--1--|
G|--2--2------2--------2---0--0--|
D|--0--0------0--------2---0--2--|
A|---------------------0---x--3--|
E|-------------------------3-----|

 
[Intro / Verse]
e|---------------------------------------|
B|---------------------------------------|
G|--77777--7\2--2-2222--44444-4-44/6--66-|
D|--00000--0\0--0-0000--00000-0-00/0--00-|
A|--xxxxx--x\x--x-xxxx--xxxxx-x-xx/x--xx-|
E|--77777--7\2--2-2222--33333-3-33/5--55-|


[Prechorus]

(Guitar 1)

A ^ ^ ^ ^ ^ ^ ^ ^ ^ G ^ ^ ^ ^ ^ ^ ^ ^ ^ ^

(Guitar 2)

e|--7------7------7------10----7-------8-7---|
B|----10-----10-----10-----------8---------8-|
G|-------9-------------9------------7--------|
D|---------------------------0---------------|
A|-------------------------------------------|
E|-------------------------------------------|


[Chorus]

D ^ ^ ^ ^ A ^ ^ ^ ^ ^ G ^ ^ ^ ^ ^ D ^ ^ Dsus4 D D(add9)

D ^ ^ ^ ^ A ^ ^ ^ ^ ^ C ^ ^ ^ ^ ^ G ^ ^ ^ ^ ^


[Interlude]

e|--------------------------------------------------|
B|----------------------10---10p12---12---12---10---|
G|--9h11------11---11-------------------------------|
D|-------12p9----9----9----9-------9----9----9----9-|
A|--------------------------------------------------|
E|--------------------------------------------------|


[Outro]

 (Guitar 1)
e|---------------------|
B|---------------------|
G|--2-2-2-2--4-4-4-4\4-|
D|--0-0-0-0--0-0-0-0\0-| x4
A|--x-x-x-x--x-x-x-x\x-|
E|--2-2-2-2--3-3-3-3\5-|

 (Guitar 2)
e|------5--|
B|----3----|
G|--2------|
D|---------|  x29
A|---------|
E|---------|

Ending Chord

e|--3-
B|--3-
G|--0-
D|--0-
A|--x-
E|--3-


intro/verse x8
prelude
intro/verse x6
prelude
chorus
intrelude
prelude
chorusx2
outro
ending chord

************************************

| x  Dead note
| h  Hammer-on
| p  Pull-off
| /  Slide up
| \  Slide down
| ^  Strum

************************************
Suggest correction
comments
print report bad tab
17 comments total. Showing first comments.
+1 reply
Rivers 167 Jan 29, 2006 02:43 AM

well done i must say!

+1 reply
mark-do 51 Mar 20, 2006 09:30 PM

very nice

+1 reply
MniManNDaSexiVa 10 Jul 25, 2006 11:44 AM

Great job! Love it!

guest
You may want to rate the tab now too:
select rating
Wanna post a correction for this tab? Suggest correction