Oops, an error
Loading. Please wait.

The World I Know bass

version 3
version 3

Whole song

Interactive

1,436 views 3 this week
3 commentsread comments
1 2 3 4 5
3 more votes to show rating
add to favorites
×
Save as Personal and add changes to this tab that will be seen only by you. Learn more ›
×
You can save this tab as Personal to edit and correct it or add notes. All changes will be seen only by you. Learn more »
launch autoscroll
font size
0
reset
guitar tuner
edit
Autoscroll
slow
fast
+/-
esc
set tempo
stop
Author
Difficulty
This is one of my favorite songs of all time by one of my favorite bands of all time. I 
freaking sick of seeing bad tabs that don’t do this song justice! So here goes! I’m 
sure this is right and if not, then pretty damn close.

Intro and verse             (repeat 7x)
Gb|--------------------------------------------------------------------|
Db|5-4-0---------------------------------------------------------------|
Ab|-----0-2-2-2-5-5-5---------2-2-2-5-5-5---------2-2-2-5-5-5----------|
Eb|------------------2-3-3-3-5-----------2-3-3-3-5-----------2-3-3-3-5-|


Bridge
Gb|--------------------------------------------------------------------|
Db|--------------------------------------------------------------------|
Ab|-0-0-0-0-0-0-0-0-12-12-12--12-12-12-12------------------------------|
Eb|--------------------------------------3-3-3-3-3-3-3-3-3-3-3-3-3-----|

Chorus:
Gb|--------------------------------------------------------------------|
Db|--------------------------------------------------------------------|
Ab|-5-5-5-5-5-5-5-5-5---------------------------------5-5-5-5-5-5-5-5-5|
Eb|-------------------5-5-5-5-5-5-5-5-3-3-3-3-3-3-3-3------------------|


Gb|-----------------------------------------------------------|
Db|-----------------------------------------------------------|
Ab|-4-5-5-5-5-5-5-----------------2-3-3-3-3-3-3-0-------------|
Eb|-------------5-5-5-5-5-5-5-5-5-----------------3-3-3-3-3-3-|


Outro
Gb|-------------------------------------------------|
Db|-------------------------------------------------|
Ab|----5-5-5------------------5-5-5-------------5---|
Eb|-----------2-2-3--3-3-3-3-5-------2-3-3-3-5------|

That's it!
Suggest correction
Creating personal tab
Creating personal tab
You can edit any tab online and save it as your Personal.

You can edit, replace or remove any tab part or add personal notes – all changes will be seen only by you.

Personal tabs can be accessed anytime from any device, even offline.
Learn more »
Give kudos to tab author, rate the tab!
1 2 3 4 5
comments
print report bad tab
3 comments total.
0 reply
maguire 75 Jun 20, 2008 06:24 PM

why is it in drop Eb? the lowest note is a E#

0 reply
staind_dust87 165 Jun 22, 2008 03:33 PM

Its just standard tuning down a half step. Not any kind of drop tuning.

0 reply
carynaddingto 10 Feb 14, 2017 01:32 PM

The tab is right in standard tuning. Dropping it a half step will not have it as the same key as the original.

guest
You may want to rate the tab now too:
select rating
Wanna post a correction for this tab? Suggest correction