Oops, an error
Loading. Please wait.

Where The River Flows bass

version 3
version 3

Whole song

Interactive

707 views 1 this week
no commentswrite comment
1 2 3 4 5
3 more votes to show rating
add to favorites
×
Save as Personal and add changes to this tab that will be seen only by you. Learn more ›
×
You can save this tab as Personal to edit and correct it or add notes. All changes will be seen only by you. Learn more »
launch autoscroll
font size
0
reset
guitar tuner
edit
Autoscroll
slow
fast
+/-
esc
set tempo
stop
Difficulty
this should be the correct notes, but listen to the song with the bass turned up 
to get the right timing/spacing.


four measure rest

|main riff:
---------------|-------------|---------------|
---------------|-------------|---------------|
---------------|-------------|---------------|
0--x-0-2-0-3-x-|x-0-2-0-3--3-|-0--x-0-2-0-3-x|

               |chorus
---------------|----------------|----------------|
---------------|----------------|----------------|
---------------|----------------|----------------|
x-0-2-0-3--3--3|-5-5-5-5-5-5-5-5|-5-5-5-5-5-5-5-5|

                                 |main riff again
----------------|----------------|---------------|
----------------|----------------|---------------|
----------------|----------------|---------------|
-5-5-5-5-5-5-5-5|-5-5-5-5-x-5-3-2|-0--x-0-2-0-3-x|

                                           |
-------------|---------------|-------------|
-------------|---------------|-------------|
-------------|---------------|-------------|
x-0-2-0-3--3-|-0--x-0-2-0-3-x|x-0-2-0-3--3-|

|Interlude:                      |
----------------|----------------|
----------------|----------------|
----------------|----------------|
2000200202000200|2002020002000200|

Order:
Main Riff x4
Interlude x1
Main Riff x2
Interlude x1
Main Riff x2
Chorus x2
Main Riff x2
Interlude x1
Main Riff x2
Interlude x1
Main Riff x2
Chorus x2
Main Riff x2
Bridge x1
Main Riff x2
Interlude x1
Main Riff x2
Interlude x1
Main Riff x2
Chorus x4
Main Riff x2
Outro x1

(The Outro is the same as the main riff)

            
            
Suggest correction
Creating personal tab
Creating personal tab
You can edit any tab online and save it as your Personal.

You can edit, replace or remove any tab part or add personal notes – all changes will be seen only by you.

Personal tabs can be accessed anytime from any device, even offline.
Learn more »
Give kudos to tab author, rate the tab!
1 2 3 4 5
comments
print report bad tab
guest
Wanna post a correction for this tab? Suggest correction