Oops, an error
Loading. Please wait.

Where The River Flows tab

version 4
version 4

Interactive

22,419 views 33 this week
1 commentread comment
1 2 3 4 5
x 3
add to favorites
×
Save as Personal and add changes to this tab that will be seen only by you. Learn more ›
×
You can save this tab as Personal to edit and correct it or add notes. All changes will be seen only by you. Learn more »
launch autoscroll
font size
0
reset
how to read this tab
guitar tuner
edit
Autoscroll
slow
fast
+/-
esc
set tempo
stop
Collective Soul - Where the River Flows
Drop D Tuning. 

Intro, also played throughout the song, pre-verses, pre-chorus.
[------------------------------]
[------------------------------]
[------------------------------]
[---0---0-2-0-3--0-2-0-3--3----]
[---0---0-2-0-3--0-2-0-3--3----]
[---0---0-2-0-3--0-2-0-3--3----]

Verse 1
[------------------------------]
[------------------------------]
[------------------------------]
[--33333333333--0-3-0-5-3------]
[--33333333333--0-3-0-5-3------]
[--33333333333--0-3-0-5-3------]


Verse 2 
[-----------------------------------------]      
[-----------------------------------------]
[-----------------------------------------]
[--33333333333--5555555555--0-3-0-5-3-----]
[--33333333333--5555555555--0-3-0-5-3-----]
[--33333333333--5555555555--0-3-0-5-3-----]


Solo 

[-------------------------------------]
[-------------------------------------]
[-------------------------------------]
[-------------------------------------]
[--6p3-333333333333-3h5-3h7-3h5-3h7---] Repeat this twice.
[-------------------------------------]

[-----------------------------------]
[-----------------------------------]
[-----------------------------------]
[--333333333333-5p3-8p5-8p5-8p5-----] Repeat this twice also.
[-----------------------------------]
[-----------------------------------]

            
            
Suggest correction
Creating personal tab
Creating personal tab
You can edit any tab online and save it as your Personal.

You can edit, replace or remove any tab part or add personal notes – all changes will be seen only by you.

Personal tabs can be accessed anytime from any device, even offline.
Learn more »
Give kudos to tab author, rate the tab!
1 2 3 4 5
comments
print report bad tab
1 comment total.
0 reply
emr_steelmech 94 Apr 04, 2007 06:31 PM

everything but the main riff is wrong

guest
You may want to rate the tab now too:
select rating
Wanna post a correction for this tab? Suggest correction