Oops, an error
Loading. Please wait.

Where The River Flows tab

version 6
version 6

Interactive

2,970 views 6 this week
no commentswrite comment
1 2 3 4 5
x 4
add to favorites
×
Save as Personal and add changes to this tab that will be seen only by you. Learn more ›
×
You can save this tab as Personal to edit and correct it or add notes. All changes will be seen only by you. Learn more »
launch autoscroll
font size
0
reset
how to read this tab
guitar tuner
edit
Autoscroll
slow
fast
+/-
esc
set tempo
stop
Where The River Flows
Collective Soul
Collective Soul (1995)

Where The River Flows:  written by Ed Roland

NOTE: I have a full version of this tab where you can play along with the
song; it's not too difficult, but if anyone wants it, I can post it.

GTR I - Drop C Tuning "Ed Roland" (d,A,F,C,G,C)
GTR II - Drop C Tuning "Ross Childress" (d,A,F,C,G,C)
GTR III - Drop C Tuning "Dean Roland" (d,A,F,C,G,C)

Main Riff

  GTR I,II,III
d|-------------------------------------------------|
A|-------------------------------------------------|
F|-------------------------------------------------|
C|-------------------------------------------------|
G|--0-----x--0--2--0--3-----x--0--2--0--3-----3----|
C|--0-----x--0--2--0--3-----x--0--2--0--3-----3b---|
    .        .  .  .  .        .  .  .  .     .

  GTR I,III
d|-------------------------------------------------|
A|-------------------------------------------------|
F|-------------------------------------------------|
C|-------------------------------------------------|
G|--0-----x--0--2--0--3-----x--0--2--0--3-----3----|
C|--0-----x--0--2--0--3-----x--0--2--0--3-----3b---|
 |  .        .  .  .  .        .  .  .  .     .
 |GTR II
d|-------------------------------------------------|
A|-------------------------------------------------|
F|-------------------------------------------------|
C|-------------------------------------------------|
G|--0-----x--0--2--0--3-----x--0--2--0--3-----3----|
C|--0-----x--0--2--0--3-(3)-x--0--2--0--3-----3b---|
    .        .  .  .  .        .  .  .  .     .

  GTR I,III
d|-------------------------------------------------|
A|-------------------------------------------------|
F|-------------------------------------------------|
C|-------------------------------------------------|
G|--0-----x--0--2--0--3-----x--0--2--0--3-----3----|
C|--0-----x--0--2--0--3-----x--0--2--0--3-----3b---|
 |  .        .  .  .  .        .  .  .  .     .
 |GTR II
d|-------------------------------------------------|
A|-------------------------------------------------|
F|-------------------------------------------------|
C|-------------------------------------------------|
G|--0-----x--0--2--0--3-----x--0--2--0--3-----3----|
C|--0-----x--0--2--0--3-(3)-x--0--2--0--3-----3b---|
    .        .  .  .  .        .  .  .  .     .

  GTR I,II,III
d|-------------------------------------------------|
A|-------------------------------------------------|
F|-------------------------------------------------|
C|-------------------------------------------------|
G|--0-----x--0--2--0--3-----x--0--2--0--3-----3----|
C|--0-----x--0--2--0--3-----x--0--2--0--3-----3b---|
    .        .  .  .  .        .  .  .  .     .

Verse

  GTR II,III
d|-------------------------------------------------|
A|-------------------------------------------------|
F|-------------------------------------------------|
C|-------------------------------------------------|
G|--5--5--5--5--5--5--5--5--5--5--5--5--5--5--5--5-|
C|--5--5--5--5--5--5--5--5--5--5--5--5--5--5--5--5-|
    .  .  .  .  .  .  .  .  .  .  .  .  .  .  .  .

  GTR I
d|-------------------------------------------------|
A|-------------------------------------------------|
F|-------------------------------------------------|
C|-------------------------------------------------|
G|-----------------------------------------2--7--3-|
C|-----------------------------------------2--7--3-|
 |                                         .  .  .
 |GTR II,III
d|-------------------------------------------------|
A|-------------------------------------------------|
F|-------------------------------------------------|
C|-------------------------------------------------|
G|--5--5--5--5--5--5--5--5--5--5--5--5--5--2--7--3-|
C|--5--5--5--5--5--5--5--5--5--5--5--5--5--2--7--3-|
    .  .  .  .  .  .  .  .  .  .  .  .  .  .  .  .

  GTR I,II,III
d|-------------------------------------------------|
A|-------------------------------------------------|
F|-------------------------------------------------|
C|-------------------------------------------------|
G|--0-----x--0--2--0--3-----x--0--2--0--3-----3----|
C|--0-----x--0--2--0--3-----x--0--2--0--3-----3b---|
    .        .  .  .  .        .  .  .  .     .

  GTR I,III
d|-------------------------------------------------|
A|-------------------------------------------------|
F|-------------------------------------------------|
C|-------------------------------------------------|
G|--0-----x--0--2--0--3-----x--0--2--0--3-----3----|
C|--0-----x--0--2--0--3-----x--0--2--0--3-----3----|
 |  .        .  .  .  .        .  .  .  .     .
 |GTR II
d|-------------------------------------------------|
A|-------------------------------------------------|
F|-------------------------------------------------|
C|-------------------------------------------------|
G|--0-----x--0--2--0--3-----x--0--2--0--3-----3----|
C|--0-----x--0--2--0--3-(3)-x--0--2--0--3-----3----|
    .        .  .  .  .        .  .  .  .     .

  GTR II,III
d|-------------------------------------------------|
A|-------------------------------------------------|
F|-------------------------------------------------|
C|-------------------------------------------------|
G|--5--5--5--5--5--5--5--5--5--5--5--5--5--5--5--5-|
C|--5--5--5--5--5--5--5--5--5--5--5--5--5--5--5--5-|
    .  .  .  .  .  .  .  .  .  .  .  .  .  .  .  .

  GTR I
d|-------------------------------------------------|
A|-------------------------------------------------|
F|-------------------------------------------------|
C|-------------------------------------------------|
G|-----------------------------------------2--7--3-|
C|-----------------------------------------2--7--3-|
 |                                         .  .  .
 |GTR II,III
d|-------------------------------------------------|
A|-------------------------------------------------|
F|-------------------------------------------------|
C|-------------------------------------------------|
G|--5--5--5--5--5--5--5--5--5--5--5--5--5--2--7--3-|
C|--5--5--5--5--5--5--5--5--5--5--5--5--5--2--7--3-|
    .  .  .  .  .  .  .  .  .  .  .  .  .  .  .  .

  GTR I,II,III
d|-------------------------------------------------|
A|-------------------------------------------------|
F|-------------------------------------------------|
C|-------------------------------------------------|
G|--0-----x--0--2--0--3-----x--0--2--0--3-----3----|
C|--0-----x--0--2--0--3-----x--0--2--0--3-----3----|
    .        .  .  .  .        .  .  .  .     .

  GTR I,II,III
d|-------------------------------------------------|
A|-------------------------------------------------|
F|-------------------------------------------------|
C|-------------------------------------------------|
G|--0-----x--0--2--0--3-----x--0--2--0--3-----3----|
C|--0-----x--0--2--0--3-----x--0--2--0--3-----3----|
    .        .  .  .  .        .  .  .  .     .

Chorus

  GTR I,II,III
d|-------------------------------------------------|
A|-------------------------------------------------|
F|-------------------------------------------------|
C|-------------------------------------------------|
G|--7--7--7--7--7--7--7--7--7--7--7--7--7--7--7--7-|
C|--7--7--7--7--7--7--7--7--7--7--7--7--7--7--7--7-|
    .  .  .  .  .  .  .  .  .  .  .  .  .  .  .  .

  GTR I,III
d|-------------------------------------------------|
A|-------------------------------------------------|
F|-------------------------------------------------|
C|-------------------------------------------------|
G|--5--5--5--5--5--5--5--5--5--5--5--5--5--5--5--5-|
C|--5--5--5--5--5--5--5--5--5--5--5--5--5--5--5--5-|
 |  .  .  .  .  .  .  .  .  .  .  .  .  .  .  .  .
 |GTR II
d|-------------------------------------------------|
A|-------------------------------------------------|
F|----------------------------(5)---(5)---(5)---(5)|
C|-------------------------------------------------|
G|--5--5--5--5--5--5--5--5--5-----5-----5-----5----|
C|--5--5--5--5--5--5--5--5--5-----5-----5-----5----|
    .  .  .  .  .  .  .  .  .     .     .     .   

  GTR I,II,III
d|-------------------------------------------------|
A|-------------------------------------------------|
F|-------------------------------------------------|
C|-------------------------------------------------|
G|--7--7--7--7--7--7--7--7--7--7--7--7--7--7--7--7-|
C|--7--7--7--7--7--7--7--7--7--7--7--7--7--7--7--7-|
    .  .  .  .  .  .  .  .  .  .  .  .  .  .  .  .

  GTR I,III
d|-------------------------------------------------|
A|-------------------------------------------------|
F|-------------------------------------------------|
C|-------------------------------------------------|
G|--5--5--5--5--5--5--5--5--5--5--5--0--3--0--3--3-|
C|--5--5--5--5--5--5--5--5--5--5--5--0--3--0--3--3-|
 |  .  .  .  .  .  .  .  .  .  .  .  .  .  .  .  .
 |GTR II
d|-------------------------------------------------|
A|-------------------------------------------------|
F|----------------------------(5)---(5)---(5)---(5)|
C|-------------------------------------------------|
G|--5--5--5--5--5--5--5--5--5-----5-----5-----5----|
C|--5--5--5--5--5--5--5--5--5-----5-----5-----5----|
    .  .  .  .  .  .  .  .  .     .     .     .   

Main Riff
Verse
Chorus
Main Riff

Guitar Solo

  GTR I
d|-------------------------------------------------|
A|-------------------------------------------------|
F|-------------------------------------------------|
C|-------------------------------------------------|
G|--0-----0--0-----0-----0-------------------------|
C|--0-----0--0-----0-----0--2p-0--3p-0--3h-5p-3p-0-|
 |  .     .  .     .     .  .  .  .  .  .  .  .  .
 |GTR II
d|-------------------------------------------------|
A|-------------------------------------------------|
F|-------------------------------------------------|
C|--2p-0--0--0--0--0--0--0--2p-0--3p-0--3h-5p-3p-0-|
G|-------------------------------------------------|
C|-------------------------------------------------|
 |
 |GTR III
d|-------------------------------------------------|
A|-------------------------------------------------|
F|-------------------------------------------------|
C|-------------------------------------------------|
G|--0-----0--0-----0-----0--0--0--0--0--0--0--0--0-|
C|--0-----0--0-----0-----0--0--0--0--0--0--0--0--0-|
    .     .  .     .     .  .  .  .  .  .  .  .  .

  GTR I
d|-------------------------------------------------|
A|-------------------------------------------------|
F|-------------------------------------------------|
C|-------------------------------------------------|
G|--0-----0--0-----0-----0-------------------------|
C|--0-----0--0-----0-----0--2p-0--3p-0--3h-5p-3p-0-|
 |  .     .  .     .     .  .  .  .  .  .  .  .  .
 |GTR II
d|-------------------------------------------------|
A|-------------------------------------------------|
F|-------------------------------------------------|
C|--2p-0--0--0--0--0--0--0--2p-0--3p-0--3h-5p-3p-0-|
G|-------------------------------------------------|
C|-------------------------------------------------|
 |
 |GTR III
d|-------------------------------------------------|
A|-------------------------------------------------|
F|-------------------------------------------------|
C|-------------------------------------------------|
G|--0-----0--0-----0-----0--0--0--0--0--0--0--0--0-|
C|--0-----0--0-----0-----0--0--0--0--0--0--0--0--0-|
    .     .  .     .     .  .  .  .  .  .  .  .  .

  GTR I
d|-------------------------------------------------|
A|-------------------------------------------------|
F|-------------------------------------------------|
C|-------------------------------------------------|
G|--0-----0--0-----0-----0-------------------------|
C|--0-----0--0-----0-----0--2p-0--3p-0--3h-5p-3p-0-|
 |  .     .  .     .     .  .  .  .  .  .  .  .  .
 |GTR II
d|-------------------------------------------------|
A|-------------------------------------------------|
F|-------------------------------------------------|
C|--2p-0--0--0--0--0--0--0--2p-0--3p-0--3h-5p-3p-0-|
G|-------------------------------------------------|
C|-------------------------------------------------|
 |
 |GTR III
d|-------------------------------------------------|
A|-------------------------------------------------|
F|-------------------------------------------------|
C|-------------------------------------------------|
G|--0-----0--0-----0-----0--0--0--0--0--0--0--0--0-|
C|--0-----0--0-----0-----0--0--0--0--0--0--0--0--0-|
    .     .  .     .     .  .  .  .  .  .  .  .  .

  GTR I
d|-------------------------------------------------|
A|-------------------------------------------------|
F|-------------------------------------------------|
C|-------------------------------------------------|
G|--0-----0--0-----0-----0-------------------------|
C|--0-----0--0-----0-----0--2p-0--3p-0--3h-5p-3p-0-|
 |  .     .  .     .     .  .  .  .  .  .  .  .  .
 |GTR II
d|-------------------------------------------------|
A|-------------------------------------------------|
F|-------------------------------------------------|
C|--2p-0--0--0--0--0--0--0--2p-0--3p-0--3h-5p-3p-0-|
G|-------------------------------------------------|
C|-------------------------------------------------|
 |
 |GTR III
d|-------------------------------------------------|
A|-------------------------------------------------|
F|-------------------------------------------------|
C|-------------------------------------------------|
G|--0-----0--0-----0-----0--0--0--0--0--0--0--0--0-|
C|--0-----0--0-----0-----0--0--0--0--0--0--0--0--0-|
    .     .  .     .     .  .  .  .  .  .  .  .  .

  GTR I
d|-------------------------------------------------|
A|-------------------------------------------------|
F|-------------------------------------------------|
C|-------------------------------------------------|
G|--5-----5--5-----5-----5-----0--3--0-----0--3--0-|
C|--5-----5--5-----5-----5--5-----------5----------|
 |  .     .  .     .     .  .  .  .  .  .  .  .  .
 |GTR II
d|-------------------------------------------------|
A|-------------------------------------------------|
F|--------------------------------5-----------5----|
C|--5--5--5--5--5--5--5--5--5h-7----h7--5h-7----h7-|
G|-------------------------------------------------|
C|-------------------------------------------------|
 |
 |GTR III
d|-------------------------------------------------|
A|-------------------------------------------------|
F|-------------------------------------------------|
C|-------------------------------------------------|
G|--5-----5--5-----5-----5--5--5--5--5--5--5--5--5-|
C|--5-----5--5-----5-----5--5--5--5--5--5--5--5--5-|
    .     .  .     .     .  .  .  .  .  .  .  .  .

  GTR I
d|-------------------------------------------------|
A|-------------------------------------------------|
F|-------------------------------------------------|
C|-------------------------------------------------|
G|--5-----5--5-----5-----5-----0--3--0-----0--3--0-|
C|--5-----5--5-----5-----5--5-----------5----------|
 |  .     .  .     .     .  .  .  .  .  .  .  .  .
 |GTR II
d|-------------------------------------------------|
A|-------------------------------------------------|
F|--------------------------------5-----------5----|
C|--5--5--5--5--5--5--5--5--5h-7----h7--5h-7----h7-|
G|-------------------------------------------------|
C|-------------------------------------------------|
 |
 |GTR III
d|-------------------------------------------------|
A|-------------------------------------------------|
F|-------------------------------------------------|
C|-------------------------------------------------|
G|--5-----5--5-----5-----5--5--5--5--5--5--5--5--5-|
C|--5-----5--5-----5-----5--5--5--5--5--5--5--5--5-|
    .     .  .     .     .  .  .  .  .  .  .  .  .

  GTR I
d|-------------------------------------------------|
A|-------------------------------------------------|
F|-------------------------------------------------|
C|-------------------------------------------------|
G|--0-----0--0-----0-----0-------------------------|
C|--0-----0--0-----0-----0--2p-0--3p-0--3h-5p-3p-0-|
 |  .     .  .     .     .  .  .  .  .  .  .  .  .
 |GTR II
d|-------------------------------------------------|
A|-------------------------------------------------|
F|-------------------------------------------------|
C|--2p-0--0--0--0--0--0--0--2p-0--3p-0--3h-5p-3p-0-|
G|-------------------------------------------------|
C|-------------------------------------------------|
 |
 |GTR III
d|-------------------------------------------------|
A|-------------------------------------------------|
F|-------------------------------------------------|
C|-------------------------------------------------|
G|--0-----0--0-----0-----0--0--0--0--0--0--0--0--0-|
C|--0-----0--0-----0-----0--0--0--0--0--0--0--0--0-|
    .     .  .     .     .  .  .  .  .  .  .  .  .

  GTR I
d|-------------------------------------------------|
A|-------------------------------------------------|
F|-------------------------------------------------|
C|-------------------------------------------------|
G|--0-----0--0-----0-----0-------------------------|
C|--0-----0--0-----0-----0--2p-0--3p-0--3h-5p-3p-0-|
 |  .     .  .     .     .  .  .  .  .  .  .  .  .
 |GTR II
d|-------------------------------------------------|
A|-------------------------------------------------|
F|-------------------------------------------------|
C|--2p-0--0--0--0--0--0--0--2p-0--3p-0--3h-5p-3p-0-|
G|-------------------------------------------------|
C|-------------------------------------------------|
 |
 |GTR III
d|-------------------------------------------------|
A|-------------------------------------------------|
F|-------------------------------------------------|
C|-------------------------------------------------|
G|--0-----0--0-----0-----0--0--0--0--0--0--0--0--0-|
C|--0-----0--0-----0-----0--0--0--0--0--0--0--0--0-|
    .     .  .     .     .  .  .  .  .  .  .  .  .

Main Riff
Verse
Chorus (2x)

Outro

  GTR I,II,III
d|-------------------------------------------------|
A|-------------------------------------------------|
F|-------------------------------------------------|
C|-------------------------------------------------|
G|--0-----x--0--2--0--3-----x--0--2--0--3-----3----|
C|--0-----x--0--2--0--3-----x--0--2--0--3-----3b---|
    .        .  .  .  .        .  .  .  .     .

  GTR I,III
d|-------------------------------------------------|
A|-------------------------------------------------|
F|-------------------------------------------------|
C|-------------------------------------------------|
G|--0-----x--0--2--0--3-----x--0--2--0--3-----3----|
C|--0-----x--0--2--0--3-----x--0--2--0--3-----3b---|
 |  .        .  .  .  .        .  .  .  .     .
 |GTR II
d|-------------------------------------------------|
A|-------------------------------------------------|
F|-------------------------------------------------|
C|-------------------------------------------------|
G|--0-----x--0--2--0--3-----x--0--2--0--3-----3----|
C|--0-----x--0--2--0--3-(3)-x--0--2--0--3-----3b---|
    .        .  .  .  .        .  .  .  .     .

  GTR I,II,III
d|-------------------------------------------------|
A|-------------------------------------------------|
F|-------------------------------------------------|
C|-------------------------------------------------|
G|--0-----x--0--2--0--3----------------------------|
C|--0-----x--0--2--0--3----------------------------|
    .        .  .  .  .                          

| b  bend
| r  release bend
|trp triplet
|PH. pinch harmonic
|fbk feedback
| .  palm-mute
| /  slide up
| \  slide down
| h  hammer-on
| p  pull-off
| ~  vibrato
|(7) harmonic
| x  Mute note
===============================================================================

            
            
Suggest correction
Creating personal tab
Creating personal tab
You can edit any tab online and save it as your Personal.

You can edit, replace or remove any tab part or add personal notes – all changes will be seen only by you.

Personal tabs can be accessed anytime from any device, even offline.
Learn more »
comments
print report bad tab
guest
You may want to rate the tab now too:
select rating
Wanna post a correction for this tab? Suggest correction