Oops, an error
Loading. Please wait.

Tv chords

670 views 1 this week
no commentswrite comment
1 2 3 4 5
2 more votes to show rating
add to favorites
×
Save as Personal and add changes to this tab that will be seen only by you. Learn more ›
×
You can save this tab as Personal to edit and correct it or add notes. All changes will be seen only by you. Learn more »
launch autoscroll
font size
0
reset
transpose
0
reset
display chords
guitar tuner
edit
Autoscroll
slow
fast
+/-
esc
set tempo
stop
Author
Difficulty
Strumming
There is no strumming pattern for this song yet. and get +5 IQ
[Verse 1] 

D#
TV is my friend
           G    D#
And it has been with me everyday
        Bb
From an early age
D#
TV is my friend
           G    D#
And it has been always there for me
           G#  G
In time of need


[Interlude]

D# Bb G# D# G# G Bb x2


[Verse 2]

D#
TV is my friend
           G    D#
And it has been with me everyday
        Bb
From an early age
D#
TV is my friend
           G    D#
And it has been always there for me
           G#  G
In time of need


[Chorus]

   D#    Bb G#
It keeps me compa-
D#  G#   G   Bb
-ny when nobody else
D# Bb G#       D#  G#  G  Bb
Is a-round and I'm all by myself
     D# Bb G#    D#  G#  G   Bb
It's ea-si-er to be with somebody else
G#
In my room


[Instrumental]

e|--------6--8--------------6-8--------------------------6--8----------|
B|--6--8-------8~-------8-6-----8~---8p6~----------6--8-------8~-------|
G|---------------------------------------------------------------------|
D|---------------------------------------------------------------------|  X2 with different endings
A|---------------------------------------------------------------------|
E|---------------------------------------------------------------------|
             END 1                          END 2
e|------6~---------------------|------6----11--11p10~---------|
B|---8------9-8p6~-------------|---8--------------------------|
G|-----------------------------|------------------------------|
D|-----------------------------|------------------------------|
A|-----------------------------|------------------------------|
E|-----------------------------|------------------------------|


[Verse 3]

         D#
I feel a real connection
              G
When my TV's on
     D#
And it's the truest one
               Bb
That I'll ever make
D#
TV is my friend
              G
Made me who I am
D#
And if you're not a fan
             G#     G
Then I can't relate
 

[Chorus]

   D#    Bb G#
It keeps me compa-
D#  G#   G   Bb
-ny when nobody else
D# Bb G#       D#  G#  G  Bb
Is a-round and I'm all by myself
  D#  Bb  G#      D# G#   G      Bb
A big big blanket to wrap around myself
G#    G#m
In my room


[Bridge]

                 F               G#
In my room where I don't have to worry
        D#
About a conversation
    F               G#
And I don't have to worry
      Bb      
About being fun
         G# G
Being fu-un


[Chorus]

   D#    Bb G#
It keeps me compa-
D#  G#   G   Bb
-ny when nobody else
D# Bb G#       D#  G#  G  Bb
Is a-round and I'm all by myself
     D# Bb G#    D#  G#  G   Bb
It's ea-si-er to be with somebody else
G#    G#m
In my room
D#




            
            
Suggest correction
Creating personal tab
Creating personal tab
You can edit any tab online and save it as your Personal.

You can edit, replace or remove any tab part or add personal notes – all changes will be seen only by you.

Personal tabs can be accessed anytime from any device, even offline.
Learn more »
Give kudos to tab author, rate the tab!
1 2 3 4 5
comments
print report bad tab
guest
You may want to rate the tab now too:
select rating
Wanna post a correction for this tab? Suggest correction