Oops, an error
Loading. Please wait.

220 tab

85 views 1 this week
no commentswrite comment
1 2 3 4 5
3 more votes to show rating
add to favorites
×
Save as Personal and add changes to this tab that will be seen only by you. Learn more ›
×
You can save this tab as Personal to edit and correct it or add notes. All changes will be seen only by you. Learn more »
launch autoscroll
font size
0
reset
how to read this tab
guitar tuner
edit
Autoscroll
slow
fast
+/-
esc
set tempo
stop
About this tab version
Very similar to the other version but the guitar is a half a step down instead and a drop D tuning and it seems easier. Also changed the chords a little bit. Was this info helpful? Yes No
   PALM MUTE   PALM MUTE   PALM MUTE  PALM MUTE  PALM MUTE PALM MUTE PALM MUTE  |
D#|-----------------------------------------------------------12--------------------------|
A#|----------------------------------------------------------12---------------------------|
F#|---------------------------------------------------------12----------------------------|
C#|----------5-----------------5---------------------5---------------------5--------------|
G#|------5-7--5-7\---------5-7--5-7--------------5-7---5-7\------------5-7---5-7----------|
D#|--5-7-----------0---5-7----------7-6-5~--5-7---------------------5-7----------7-6-5----|
             
D#|------------------------------------------------------12-12-12-------------------------|
A#|------------------------------------------------------12-12-12-------------------------|
F#|------------------------------------------------------12-12-12-------------------------|
C#|---------5-----------------5---------------------5------------------------5------------|
G#|-----5-7--5-7\----------5-7--5-7-------------5-7--5-7\----------------5-7--5-7---------|
D#|-5-7----------0----5-7-----------7-6-5~--5-7---------------------5-7------------7-6-5--|

                  I try to take the high road, I try to make my own 
D#|---------------------------------------------------------------------------------------|
A#|-----------------------------------------------------------------10-8------------------|
F#|----------------------------------------------------------------------9-7-----7-9\-----|
C#|---------5----------------------------------------------------------------7-9----------|
G#|-----5-7--5-7\-------------------------------------------------------------------------|
D#|-5-7-----------------------------------------------------------------------------------|
     
     I'm walking with my bare feet     And feeling every stone
D#|--------------------------------12----------------------------------------5------------|
A#|--------------------------------14b---------------------------------------5------------|
F#|--------------------------------------------------------------------------5------------|
C#|--------------------------------------------------------------------------7------------|
G#|-----------------------------------------------------------------5-7p5h7---------------|
D#|-------------------------------------------------------------5-7-----------------------|

    I walk the narrow    I walk the line right through the door
D#|-------------------7---------------8---------------------5-----------------------------|
A#|-------------------7---------------8---------------------5-----------------------------|
F#|-------------------7---------------9---------------------5-----------------------------|
C#|-------------------9---------------10--------------------7-----------------------------|
G#|---------------------------------------------------------------------------------------|
D#|---------------------------------------------------------------------------------------|

    I walk the tight rope    But I'm just like I was before
D#|---------------------------------------7------------8---8------------------------------|
A#|---------------------------------------7------------8---8------------------------------|
F#|---------------------------------------7------------9---9------------------------------|
C#|---------------------------------------9------------10--10-----------------------------|
G#|---------------------------------------------------------------------------------------|
D#|---------------------------------------------------------------------------------------|

D#|---------------------------------------------------------------------------------------|
A#|---------------------------------------------------------------------------------------|
F#|--------------------------------------------------------14b-p12------------------------|
C#|----------5-----------------5---------------------5-----------14\-----------5----------|
G#|------5-7--5-7\---------5-7--5-7--------------5-7--5-7\-----------------5-7--5-7-------|
D#|--5-7----------0---5-7----------7-6-5~--5-7-----------------------5-7------------7-6-5-|
          
               How am I supposed to   Keep on standing tall                  when 
D#|---------------------------------------------------------------------------------------|
A#|---------------------------------------------------------------------------------------|
F#|---------------------------------------------------------------------------------------|
C#|--------5---------------------------------------------------7-5------------------------|
G#|-----5-7--5-5h7-5h7-5h7-5h7-5h7-5h7-5h7-5h7-5h7-5h7-5h7-5h7-----7-5h7-5h7-5h7-5h7------|
D#|-5-7-----------------------------------------------------------------------------------|

    When everything around me          It falls apart            I walk the narrow
D#|----------------------------------------------------------------5-5-5-5-5-5-5-5--------|
A#|----------------------------------------------------------------5-5-5-5-5-5-5-5--------|
F#|----------------------------------------------------------------5-5-5-5-5-5-5-5--------|
C#|----------------------------------------------------------------7-7-7-7-7-7-7-7--------|
G#|-5h7-5h7-5h7-5h7-5h7-5h7-5h7-5h7~---------------------3--------------------------------|
D#|---------------------------------------------------3-5---5-3---------------------------|

       I walk the line right through the door        I walk the tight rope      But
D#|-7-7-7-7-7-7-8--8--8--8--8--8-----7----5---5-5-5-5-5-5-5-5-5-5-5-5-5-5-5-5-5--7--------|
A#|-7-7-7-7-7-7-8--8--8--8--8--8-----7----5---5-5-5-5-5-5-5-5-5-5-5-5-5-5-5-5-5--7--------|
F#|-7-7-7-7-7-7-9--9--9--9--9--9-----7----5---5-5-5-5-5-5-5-5-5-5-5-5-5-5-5-5-5--7--------|
C#|-9-9-9-9-9-9-10-10-10-10-10-10-- -9----7---7-7-7-7-7-7-7-7-7-7-7-7-7-7-7-7-7--9--------|
G#|---------------------------------------------------------------------------------------|
D#|---------------------------------------------------------------------------------------|

    I'm just like I was before
D#|--7-7-7-7-7-7-7-7-8-------------------------------------------------------12-12-12-----|
A#|--7-7-7-7-7-7-7-7-8-------------------------------------------------------12-12-12-----|
F#|--7-7-7-7-7-7-7-7-9-------------------------------------------------------12-12-12-----|
C#|--9-9-9-9-9-9-9-9-10----------5----------------5-------------------5-------------------|
G#|---------------------------5-7--5-7\-------5-7---5-7-----------5-7---5-7---------------|
D#|------------------------5-7----------0--5-7----------7-6-5--5-7------------------------|

D#|---------------------------------------------------------------------------------------|
A#|---------------------------------------------------------------------------------------|
F#|-----------------------------------------------------------------------14b-p12---------|
C#|--------5---------------------------------------------------------------------14-------|
G#|----5-7--5-7---------------------7-7-5-7-2-----------7-7-5-7-2-----5-7-----------------|
D#|-5-7---------7-6-5-5-5-5-5-5-5-5-----------5-7-5-3-0-----------5-7---------------------|

D#|--------------------12-----------------------------------------------------------------|
A#|--------------------14b----------------------------------------------------------------|
F#|----------------------------------------------------14b-p12----------------------------|
C#|------------------------------------------------------------14-------------------------|
G#|-7-7-5-7-2---------------7-7-5-7-2~~~----------5-7-------------------------------------|
D#|-----------5-7-5-3--------------------------5-7----------------------------------------|


************************************

| h   Hammer-on
| p   Pull-off
| b   Bend
| /   Slide up
| \   Slide down
| ~   Vibrato

************************************

            
            
Suggest correction
Creating personal tab
Creating personal tab
You can edit any tab online and save it as your Personal.

You can edit, replace or remove any tab part or add personal notes – all changes will be seen only by you.

Personal tabs can be accessed anytime from any device, even offline.
Learn more »
Give kudos to tab author, rate the tab!
1 2 3 4 5
comments
print report bad tab
guest
You may want to rate the tab now too:
select rating
Wanna post a correction for this tab? Suggest correction