Oops, an error
Loading. Please wait.

Waiting For My Time To Come tab

838 views 15 this week
no commentswrite comment
1 2 3 4 5
x 4
add to favorites
×
Save as Personal and add changes to this tab that will be seen only by you. Learn more ›
×
You can save this tab as Personal to edit and correct it or add notes. All changes will be seen only by you. Learn more »
launch autoscroll
font size
0
reset
how to read this tab
guitar tuner
edit
Autoscroll
slow
fast
+/-
esc
set tempo
stop
-------------------------------------------------------------------------------
                             Waiting For My Time to Come - Colony House
-------------------------------------------------------------------------------
Tabbed by: Thomas Bowe
E-mail: thomasbowe34@gmail.com

Tuning: EADGBe (Standard)
Key: G#
Capo: 1
Time Signature: 4/4

Great song by Colony House. Chords are relative to the capo. 
The pre-chorus is  my own arrangement in order to give some more variety, 
since in the recording the guitar part is essentially the same and the piano kind of takes the forefront 
in the mix. It's a simple song, but the trickiest part is getting the rhythm down.
Listen and play along with the track, and you shouldn't have too much trouble. 
Have fun!


 [INTRO]
e|---------------------------------------------------------------------------|
B|------------------------------3--1-----------------------1--0--------------|
G|------0--0--0--0--0--0--0--0--------0--0--0--0--0--0--0--------0--0--0--0--|
D|---------------------------------------------------------------------------|
A|---------------------------------------------------------------------------|
E|----3--3--3--3--3--3--3--3--3--3--3--3--3--3--3--3--3--3--3--3--3--3--3--3-|

e|---------------------------------------------------------------------------|
B|---------------3--1-------------------0------------------------------------|
G|------0--0--0--------0--0--0--0--0h2-----0-----0--0--0--0--0--0--0---------|
D|--------------------------------------------0------------------------------|
A|---------------------------------------------------------------------------|
E|----3--3--3--3--3--3--3--3--3--3-----3--3--3--3--3--3--3--3--3--3----------|



 [VERSE 1] (Repeat progression through verse)
        Today...is not my day.                            I don't...
e|---------------------------------------------------------------------------|
B|------3--1--------------------1-----0-----------------------3--1-----------|
G|-----------0--0--0--0--0--0------0----0--0--0--0--0--0--0--------0--0--0--0|
D|---------------------------------------------------------------------------|
A|---------------------------------------------------------------------------|
E|----3--3--3--3--3--3--3--3--3--3--3--3--3--3--3--3--3--3--3--3--3--3--3--3-|
         ...have the cards to play.
e|---------------------------------------------------------------------------|
B|--------------------0------------------------------------------------------|
G|------0--0--0--0h2-----0-----0--0--0--0--0--0------------------------------|
D|--------------------------0------------------------------------------------|
A|---------------------------------------------------------------------------|
E|----3--3--3--3----3--3--3--3--3--3--3--3--3--3-----------------------------|

  I've settled down...I've learned
  Be patient now...Let the fire burn

  [PRE-CHORUS] (C shape)
           C              D          G
  I'm just waiting on the seasons to change...
  Waiting on the curtains to fall...
e|---------------------------------------------------------------------------|
B|-----1--1--3--3-------8----------------------------------------------------|
G|-----0--0--0--0---0-----0--0-----------------------------------------------|
D|---------------------------------------------------------------------------|
A|---3--3--5--5--10--10----10------------------------------------------------|
E|---------------------------------------------------------------------------|

  I could lose my cool like a restless fool
e|---------------------------------------------------------------------------|
B|-----1--1--1--1-----5------------------------------------------------------|
G|-----0--0--0--0--0---------------------------------------------------------|
D|---------------------------------------------------------------------------|
A|---3---3--5--5--7--7-------------------------------------------------------|
E|---------------------------------------------------------------------------|

  But I'm waiting for my time to come
  Yes I'm waiting for my time to come
  I'm still waiting for my time to come
e|-------------------------------x---x---x-----------------------------------|
B|-----1--1--3--3-------8--------8---8---8-----------------------------------|
G|-----0--0--0--0---0-----0--0---0---0---0-----------------------------------|
D|-------------------------------9---9---9-----------------------------------|
A|---3--3--5--5--10--10----10----10--10--10----------------------------------|
E|-------------------------------x---x---x-----------------------------------|


 [CHORUS]
  Oooo....
    Em    C    G    D
e|---3----3----3----2--------------------------------------------------------|
B|---0----1----0----3--------------------------------------------------------|
G|---0----0----0----2--------------------------------------------------------|
D|---2----2----0----0--------------------------------------------------------|
A|---2----3----x----0--------------------------------------------------------|
E|---x----x----3----x--------------------------------------------------------|

 [BRIDGE]
    Em    C    G    D
e|---0----0----x----0--------------------------------------------------------|
B|---5----1----8----3--------------------------------------------------------|
G|---0----0----0----0--------------------------------------------------------|
D|---5----2----9----4--------------------------------------------------------|
A|---7----3----10---5--------------------------------------------------------|
E|---x----x----x----x--------------------------------------------------------|



  Em     C              G    
  Oh, it seems so complicated
     D                   Em
  It feels like hope has faded
         C                              G
  When I know it's just the way that we grow
           D
  I cannot control, no
  
 [TAG]
e|---3----3----3----2--------------------------------------------------------|
B|---0----1----0----3--------------------------------------------------------|
G|---0----0----0----2--------------------------------------------------------|
D|---2----2----0----0--------------------------------------------------------|
A|---2----3----x----0--------------------------------------------------------|
E|---x----x----3----x--------------------------------------------------------|

       C                 D        G                    
  I'll wait here when my light is low.
        C             D             Em 
  I can give a little time for this dream to grow,
          C                 D        G
  So I'll wait here when my light is low


           C              D          G
  I'm just waiting on the seasons to change,
  C               D          G
  Waiting for the curtain to fall.
          C       D           Em
  I could lose my cool like a restless fool,
          C              D       G
  But I'm waiting for my time to come
          C              D       G
  Yes I'm waiting for my time to come
            C              D        
  I'm still waiting for my time to come.


 [CHORUS] (x4)
  Oooo....
    Em    C    G    D
e|---3----3----3----2--------------------------------------------------------|
B|---0----1----0----3--------------------------------------------------------|
G|---0----0----0----2--------------------------------------------------------|
D|---2----2----0----0--------------------------------------------------------|
A|---2----3----x----0--------------------------------------------------------|
E|---x----x----3----x--------------------------------------------------------|

************************************

| /   slide up
| \   slide down
| h   hammer-on
| p   pull-off
| ~   vibrato
| +   harmonic
| x   Mute note
| b   Bend
| pb  Pre-bend
| br  Bend release
| pbr Pre-bend release
| brb Bend release bend

************************************
Suggest correction
Creating personal tab
Creating personal tab
You can edit any tab online and save it as your Personal.

You can edit, replace or remove any tab part or add personal notes – all changes will be seen only by you.

Personal tabs can be accessed anytime from any device, even offline.
Learn more »
comments
print report bad tab
guest
You may want to rate the tab now too:
select rating
Wanna post a correction for this tab? Suggest correction