Oops, an error
Loading. Please wait.

Hombre De Las Cumbres chords

62 views 1 this week
no commentswrite comment
1 2 3 4 5
3 more votes to show rating
add to favorites
×
Save as Personal and add changes to this tab that will be seen only by you. Learn more ›
×
You can save this tab as Personal to edit and correct it or add notes. All changes will be seen only by you. Learn more »
launch autoscroll
font size
0
reset
transpose
0
reset
display chords
guitar tuner
edit
Autoscroll
slow
fast
+/-
esc
set tempo
stop
Strumming
There is no strumming pattern for this song yet. and get +5 IQ
Color Humano
Hombre de las cumbres

E------------------------------------------------------------------------
B------------------------------------------------------------------------
G----9-----7-----4--------------12-----------11---------9----------------
D---9-9---7-7---4-4----------12----12-----11----11-----9-9---------------
A-7----7~5---5~2----2(x2)~10---------10-9----------9~7----7****~5****~2--
E------------------------------------------------------------------------

E-----------------
B-----------------
G-99-77-44--------
D-99-77-44--------
A-77-55-22--------
E-----------------

 Em             D      Bm
hombre de las cumbres ven alsur
G            F#m             Em
la casa del poder esta temblando
 Em             D      Bm
una pequeña llama descarna mi pecho
 Em             D      Bm
son mis ancias de cumbres de luz
G            F#m             Em
los cuentos de berniche no me alcanzan
 Em             D      Bm
aunque ocupan mi caverna azul
 Em             D      Bm
quizas caiga en la calle manchada
G            F#m             Em
es unitil yo tambien soy tierra
 Em             D      Bm
que ocupo en casas de luz
 Em             D      Bm
Hombre de las cumbres apiadate
G            F#m             Em
o te hare sentir mi feroz cachetada
 Em             D      Bm
una pequeña llama descarna mi pecho
 Em             D      Bm
seran las horas de cumbres de luz
G            F#m             Em
vuelve a salir que mi nunca te espera
 Em             D      Bm
antes de llegar pasaras por mi
 Em             D      Bm
hombre de las cumbres te tengo en mi
 Em             D      Bm
E----------------
B----------------
G----------------
D---0---1---0----
A-----2---1------
E----------------

Despues se complica un poco..pero para sacar eso estan los que saben mas.
La letra no es la posta.

            
            
Suggest correction
Creating personal tab
Creating personal tab
You can edit any tab online and save it as your Personal.

You can edit, replace or remove any tab part or add personal notes – all changes will be seen only by you.

Personal tabs can be accessed anytime from any device, even offline.
Learn more »
Give kudos to tab author, rate the tab!
1 2 3 4 5
comments
print report bad tab
guest
Wanna post a correction for this tab? Suggest correction