Oops, an error
Loading. Please wait.

Dinosaurs Tab

64 views 3 this week
no commentswrite comment
1 2 3 4 5
3 more votes to show rating
add to favorites
launch autoscroll
font size
0
reset
how to read this tab
guitar tuner
Autoscroll
slow
fast
+/-
esc
set tempo
stop
Help us to improve Ultimate-Guitar.com Take our survey!
×
Author
Difficulty
intermediate
this tab focuses on George's parts

e|------------------------------------------------------------------------------|
B|------------------------------------------------------------------------------|
G|-------6------------6----------------------------------2---4---2----4---6---4-|
D|---4-------4----4-------4----2---4---2----2---4---2---------------------------|
A|-0---0---0----0---0---0------------------------------4---4---4----5---5---5---|
E|---------------------------2---2---2----2---2---2-----------------------------|

e|-7h9p0-----------7h9p0-----------2h4p0-------------2h4p0----------------------|
B|-------7h9p0-----------7h9p0-----------------5-----------------5--------------|
G|-------------6-6-------------6-6-------0h4h6---4h6-------0h4h6---4h6----------|
D|------------------------------------------------------------------------------|
A|------------------------------------------------------------------------------|
E|------------------------------------------------------------------------------|

e|-0~----5p0---------7/9p0------------------------------------------------------|
B|-5~--------5h7-----------7----------------------------------------------------|
G|-6~------------4h6------------------------------------------------------------|
D|------------------------------------------------------------------------------|
A|------------------------------------------------------------------------------|
E|------------------------------------------------------------------------------|

e|-7h9p0-----------7h9p0-----------2h4p0-------------2h4p0----------------------|
B|-------7h9p0-----------7h9p0-----------------5-----------------5--------------|
G|-------------6-6-------------6-6-------0h4h6---4h6-------0h4h6---4h6----------|
D|------------------------------------------------------------------------------|
A|------------------------------------------------------------------------------|
E|------------------------------------------------------------------------------|

e|-4/5p0-------------5p0---------7/9p0------------------------------------------|
B|-----------5-----5-----5h7-----------7----------------------------------------|
G|-------4h6---4h6-----------4h6------------------------------------------------|
D|------------------------------------------------------------------------------|
A|------------------------------------------------------------------------------|
E|------------------------------------------------------------------------------|

e|-7h9p0-----------7h9p0-----------2h4p0-------------2h4p0----------------------|
B|-------7h9p0-----------7h9p0-----------------5-----------------5------5--5----|
G|-------------6-6-------------6-6-------0h4h6---4h6-------0h4h6---4h6--6--6----|
D|------------------------------------------------------------------------------|
A|----------------------------------------------------------------------4--4----|
E|------------------------------------------------------------------------------|

e|-----------------------------14-12--------------12----------------------------| pull off
B|-15-14-----------14\---------------14-12-----14-----12--9---------12-14-(p12)-| on 2nd time
G|-------14/16--16------14-16---------------14--------13--11--13-14-------------|
D|------------------------------------------------------------------------------|
A|------------------------------------------------------------------------------| x2
E|------------------------------------------------------------------------------|



e|-------------------------------14-12------------------------------------------|
B|-15-14-----14-12-----12-10-----------14--15-14-----14-12-----12-10------------|
G|-------14--------13--------11------------------14--------13--------11---------|
D|------------------------------------------------------------------------------|
A|------------------------------------------------------------------------------|
E|------------------------------------------------------------------------------|

e|-10/12-0------12/14-0------14/17-0------12/14-0-------------------------------|
B|---------12-----------14-----------17-----------14----------------------------|
G|------------------------------------------------------------------------------|
D|------------------------------------------------------------------------------|
A|------------------------------------------------------------------------------|
E|------------------------------------------------------------------------------|

e|-----------------------------|----|-------------------------------------------|
B|-----------------------------|----|-------------------------------------------|
G|-11-11-11----------------9---|----|---11--11--(HUH!)--------------------------|
D|----------12-12-12-9-9-9-----|----|-------------------------------------------|
A|-----------------------------|-x4-|-------------------------------------------|
E|-----------------------------|----|-------------------------------------------|

e|-----------------------------|----|-----------------|----|--------------------|
B|-----------------------------|----|-----------------|----|-------------5~-----|
G|-11-11-11----------------9---|----|---11------------|----|---11--------4~-----|
D|----------12-12-12-9-9-9-----|----|--------12---9---|----|--------12----------|
A|-----------------------------|-x4-|-----------------|-x5-|-------------5~-----|
E|-----------------------------|----|-----------------|----|--------------------|

e|-14p9--------14p9--------14p9--------12p9--------14-----------17--------------|
B|------10-10-------10-10-------10-10-------10-10-----15-----------15-----------|
G|-------------------------------------------------------16-16--------16-16/14--|
D|------------------------------------------------------------------------------|
A|------------------------------------------------------------------------------|
E|------------------------------------------------------------------------------|

e|-14---------------------------------------------------------------------------|
B|----15---------15-15-15-------------------------------------------------------|
G|-------16-16---16-16-16-------------------------------------------------------|
D|------------------------------------------------------------------------------|
A|------------------------------------------------------------------------------|
E|------------------------------------------------------------------------------|


e|-14p9--------14p9--------14p9--------12p9--------14-----------17--------------|
B|------10-10-------10-10-------10-10-------10-10-----15-----------15-----------|
G|-------------------------------------------------------16-16--------16-16/14--|
D|------------------------------------------------------------------------------|
A|------------------------------------------------------------------------------|
E|------------------------------------------------------------------------------|

e|-14------------17-17-17-------------------------------------------------------|
B|----15---------15-15-15-------------------------------------------------------|
G|-------16-16------------------------------------------------------------------|
D|------------------------------------------------------------------------------|
A|------------------------------------------------------------------------------|
E|------------------------------------------------------------------------------|

e|-5-----17-----------7---------------------------------------------------------|
B|-7-----15-----9-----7---------------------------------------------------------| (these are
G|-6-----16-----9-----9---------------------------------------------------------| probably wrong)
D|-0-----0------7-----9---------------------------------------------------------|
A|-7-----14-----9-----7---------------------------------------------------------|
E|--------------------7---------------------------------------------------------|



************************************

| x  Dead note
| h  Hammer-on
| p  Pull-off
| /  Slide up
| \  Slide down
| ~  Vibrato

************************************
Suggest correction
Give kudos to tab author, rate the tab!
1 2 3 4 5
comments
print report bad tab
guest
You may want to rate the tab now too:
select rating
Wanna post a correction for this tab? Suggest correction