Oops, an error
Loading. Please wait.

Tallulahs My Mothers Name Tab

55 views 1 this week
no commentswrite comment
1 2 3 4 5
3 more votes to show rating
add to favorites
launch autoscroll
font size
0
reset
how to read this tab
guitar tuner
Autoscroll
slow
fast
+/-
esc
set tempo
stop
Help us to improve Ultimate-Guitar.com Take our survey!
×
Author
Difficulty
intermediate
this tab focuses on George's parts

e|-10-10--------13-11-10----10-10--------------10-10--------------------10-10---|
B|-11-11-----11----------13-11-11-----11----13-11-11--------11---/---13-11-11---|
G|-10-10--12----------------10-10--12----14----12-12--10h12----12/14----12-12---|
D|------------------------------------------------------------------------------|
A|------------------------------------------------------------------------------|
E|------------------------------------------------------------------------------|

e|-10--10--10----10----6---5---|--6-6--6-6--6-6--6-6--8-8--8-8--|----|--6~--5~--|
B|-11--11--11----11----6---6---|--8-8--8-8--8-8--8-8--8-8--8-8--|----|--8~--6~--|
G|-10--10--10----10----7---7---|--8-8--8-8--7-7--7-7--8-8--8-8--|----|--7~--5~--|
D|-----------------------------|--------------------------------|----|----------|
A|-----------------------------|--------------------------------|-x2-|----------|
E|-----------------------------|--------------------------------|----|----------|

e|------------------------------------------------------------------------------|
B|------------------------------------------------------------------------------|
G|---0-0---0-0---2-2---3-3---3-3-----5-5---7-7---7-7---10-10---3-3---3-3---2-2--|
D|------------------------------------------------------------------------------|
A|-1-----1-----3-----------------5/6--------------------------------------------|
E|-------------------3-----3-------------6-----6-----8-------3-----3-----1------|

e|------------------------------------------------------------------------------|
B|------------------------------------------------------------------------------|
G|---0-0---0-0---2-2---3-3---3-3-----5-5---7-7---7-7---10-10---3-2---------2p0--|
D|-----------------------------------------------------------------3p0----------|
A|-1-----1-----3-----------------5/6--------------------------------------------|
E|-------------------3-----3-------------6-----6-----8-------3---------3\1------|

e|----------------15-13-11-----------------15-13-11-|----|----------------------|
B|-------11-13-11-----------------11-13-11----------|----|--8---8---8----8---8--|
G|-10-12--------------------10-12-------------------|----|--7---7---7----7---7--|
D|--------------------------------------------------|----|--5---5---5----5---5--|
A|--------------------------------------------------|-x4-|----------------------|
E|--------------------------------------------------|----|----------------------|

e|--15--15\13--13--13/15--15--15\13--13\11--11\10--10\8--8\6/-------------------|
B|------------------------------------------------------------------------------|
G|------------------------------------------------------------------------------|
D|------------------------------------------------------------------------------|
A|------------------------------------------------------------------------------|
E|------------------------------------------------------------------------------|

e|-10--10--10--10--13--10--10--10--10--13---------------------------------------|
B|-11--11--11--11--11--10--10--10--10--10---------------------------------------|
G|------------------------------------------------------------------------------|
D|------------------------------------------------------------------------------|
A|------------------------------------------------------------------------------|
E|------------------------------------------------------------------------------|



e|----15-15----15-15----18-18----18-18----15-15----15-15----15\13----15\13----13-13----13-13-|
B|-16-------16-------16-------16-------15-------15-------18-------18-------15-------15-------|
G|-------------------------------------------------------------------------------------------|
D|-------------------------------------------------------------------------------------------|
A|-------------------------------------------------------------------------------------------| x2
E|-------------------------------------------------------------------------------------------|

e|----10-10----10-10----13-13----13-13----10-10----10-10----13-13----13-13----10-10-10--10---|
B|-11-------11-------11-------11-------11-------11-------11-------11-------11-----------10---|
G|-------------------------------------------------------------------------------------------|
D|-------------------------------------------------------------------------------------------|
A|-------------------------------------------------------------------------------------------|
E|-------------------------------------------------------------------------------------------|

e|-------------10--------------10--------------10--------------10---------------|
B|-------11/13-----------11/13-----------11/13-----------11/13------------------|
G|-10h12-----------10h12-----------10h12-----------10h12------------------------|
D|------------------------------------------------------------------------------|
A|------------------------------------------------------------------------------| x4
E|------------------------------------------------------------------------------|

e|-----------------------------------10-(x4)---------------------10-------------10-|
B|------------------11-(x6)-13-(x10)---------13-(x6)-------11/13----------11/13----|
G|-10-(x10)-12-(x4)----------------------------------10h12----------10h12----------|
D|---------------------------------------------------------------------------------|
A|---------------------------------------------------------------------------------|
E|---------------------------------------------------------------------------------|

e|-------------10--------------10--------------10--------------10-|----|--------|
B|-------11/13-----------11/13-----------11/13-----------11/13----|----|--------|
G|-10h12-----------10h12-----------10h12-----------10h12----------|----|-10-/12-|
D|----------------------------------------------------------------|----|--------|
A|----------------------------------------------------------------|-x2-|--------|
E|----------------------------------------------------------------|----|--------|

e|------------------------------------------------------------------------------|
B|-------11-------11-------11----------------15-------15-------15-------15\-----|
G|-12-12----12-12----12-12----12-12---/15-15----15-15----15-15----15-15---------|
D|------------------------------------------------------------------------------| x2
A|------------------------------------------------------------------------------|
E|------------------------------------------------------------------------------|

e|------------------------------------------------------------------------------|
B|------------------------------------------------------------------15-15-15----|
G|-12-12-12-15-15-15-14-14-14-------12---12-12-12-15-15-15-14-14-14-------------|
D|----------------------------12-12---------------------------------------------|
A|------------------------------------------------------------------------------| x2
E|------------------------------------------------------------------------------|

e|-13-------------13-------------13-------------13------------------------------|
B|----11-10h11p10----11-10h11p10----11-10h11p10----11-10h11p10------------------|
G|------------------------------------------------------------------------------|
D|------------------------------------------------------------------------------|
A|------------------------------------------------------------------------------| x2
E|------------------------------------------------------------------------------|

e|--------------------------------------------------t13-p11---------------------|
B|-----8--8--8-----8--8--8----------t15-p11-----------------t13-----------------|
G|-----7--7--7-----8--8--8------------------t12---------------------------------|
D|-----5--5--5-----5--5--5------------------------------------------------------|
A|------------------------------------------------------------------------------|
E|------------------------------------------------------------------------------|



************************************

| x  Dead note
| h  Hammer-on
| p  Pull-off
| t  Tapping
| /  Slide up
| \  Slide down
| ~  Vibrato

************************************
Suggest correction
Give kudos to tab author, rate the tab!
1 2 3 4 5
comments
print report bad tab
guest
You may want to rate the tab now too:
select rating
Wanna post a correction for this tab? Suggest correction