Oops, an error
Loading. Please wait.

Always Me Tab

1,501 views 1 this week
no commentswrite comment
1 2 3 4 5
2 more votes to show rating
add to favorites
launch autoscroll
font size
0
reset
how to read this tab
guitar tuner
Autoscroll
slow
fast
+/-
esc
set tempo
stop
Help us to improve Ultimate-Guitar.com Take our survey!
×
Author
Difficulty
Tuning
intermediate
C G C F A D
-------------------------------------------------------------------------------
                             Always me - Colour Haze
-------------------------------------------------------------------------------
Tabbed by: Meuwh
Email: - for info, PM me

Tuning: C F Bb Eb G C


************************************

| /   slide up
| \   slide down
| h   hammer-on
| p   pull-off
| ~   vibrato
| +   harmonic
| x   Mute note
| b   Bend
| pb  Pre-bend
| br  Bend release
| pbr Pre-bend release
| brb Bend release bend

************************************


Starts with bass

(0:17)

x2
-------------------------------------------------------|
-12----14----12----14----12----14----12----12----15----|
-12h14-14-12-12h14-14-12-12h14-14-12-12h14----14-------|
-------------------------------------------------------|
-------------------------------------------------------|
-------------------------------------------------------|


(0:35)

x2
------------------------------------------------------------------------|
-15-15/17-----------15-15/17----------15-15/17--------------------------|
----------14-12-14-----------14-12-14---------14-12-14----------12------|
-------------------------------------------------------12h14-14----14---|
------------------------------------------------------------------------|
------------------------------------------------------------------------|

(0:54)

x2
------------------------------------------------------------------------|
-12----14----12----14----12----14----12----12----15---------------------|
-12h14-14-12-12h14-14-12-12h14-14-12-12h14----14------------------------|
------------------------------------------------------------------------|
------------------------------------------------------------------------|
------------------------------------------------------------------------|

(1:13)

Distortion (bass) starts here

x2
-------------------------------------------------------------------------|
-12----14----12----14----12----14----12----12----15----------------------|
-12h14-14-12-12h14-14-12-12h14-14-12-12h14----14-------------------------|
-------------------------------------------------------------------------|
-------------------------------------------------------------------------|
-------------------------------------------------------------------------|

(1:29)

x2
-------------------------------------------------------------------------|
-15-15/17-----------15-15/17----------15-15/17---------------------------|
----------14-12-14-----------14-12-14---------14-12-14----------12-------|
-------------------------------------------------------12h14-14----14----|
-------------------------------------------------------------------------|
-------------------------------------------------------------------------|


(1:46)

Heavy guitar
-----------------------------------------------------------------------------|
--------------------------------------------------------------------------15-|
--------------------------------------------------------------------12h14----|
-----------------------------------------------------------------------------|
---/14-14-14----14----/14-14-14----14----/14-14-14----14--12b-10-------------|
-10/12-12-12-10-12--10/12-12-12-10-12--10/12-12-12-10-12---------12----------|

-----------------------------------------------------------------------------|
-----------------------------------------------------------------------------|
--------------------------------------------------------------------14b-12---|
-----------------------------------------------------------------------------|
---/14-14-14----14----/14-14-14----14----/14-14-14----14--12b-10-------------|
-10/12-12-12-10-12--10/12-12-12-10-12--10/12-12-12-10-12---------12----------|


-----------------------------------------------------------------------------|
--------------------------------------------------------------------------15-|
--------------------------------------------------------------------12h14----|
-----------------------------------------------------------------------------|
---/14-14-14----14----/14-14-14----14----/14-14-14----14--12b-10-------------|
-10/12-12-12-10-12--10/12-12-12-10-12--10/12-12-12-10-12---------12----------|


---------------------------------------------------------------------------|
---------------------------------------------------------------------------|
--------------------------------------------------------------------14b-12-|
---------------------------------------------------------------------------|
---/14-14-14----14----/14-14-14----14----/14-14-14----14--12b-10-----------|
-10/12-12-12-10-12--10/12-12-12-10-12--10/12-12-12-10-12---------12--------|


(2:20)

"I am just a regular one and I broke my key
Standing outside in front of my door, why has it always to be me?"

-------------------------------------------------------------------|
-12----14----12----14----12----14----12----12----15----------------|
-12h14-14-12-12h14-14-12-12h14-14-12-12h14----14-------------------|
-------------------------------------------------------------------|
-------------------------------------------------------------------|
-------------------------------------------------------------------|


(2:37)

-----------------------------------------------------------------------------|
--------------------------------------------------------------------------15-|
--------------------------------------------------------------------12h14----|
-----------------------------------------------------------------------------|
---/14-14-14----14----/14-14-14----14----/14-14-14----14--12b-10-------------|
-10/12-12-12-10-12--10/12-12-12-10-12--10/12-12-12-10-12---------12----------|


-----------------------------------------------------------------------------|
-----------------------------------------------------------------------------|
--------------------------------------------------------------------14b-12---|
-----------------------------------------------------------------------------|
---/14-14-14----14----/14-14-14----14----/14-14-14----14--12b-10-------------|
-10/12-12-12-10-12--10/12-12-12-10-12--10/12-12-12-10-12---------12----------|


(2:53)

"Ain’t got no money, can’t pay a guy, there must be some way to get inside
Climb up the gutter – break my neck? Break up the door? – can’t close it no more"

----------------------------------------------------------------------------------|
-12----14----12----14----12----14----12----12----15-------------------------------|
-12h14-14-12-12h14-14-12-12h14-14-12-12h14----14----------------------------------|
----------------------------------------------------------------------------------|
----------------------------------------------------------------------------------|
----------------------------------------------------------------------------------|


(3:10)

"Always me"                                                        "Always me"

-------------------------------------------------------------------------------|
--------------------------------------------------------------------------15---|
--------------------------------------------------------------------12h14------|
-------------------------------------------------------------------------------|
---/14-14-14----14----/14-14-14----14----/14-14-14----14--12b-10---------------|
-10/12-12-12-10-12--10/12-12-12-10-12--10/12-12-12-10-12---------12------------|


-------------------------------------------------------------------------------|
-------------------------------------------------------------------------------|
--------------------------------------------------------------------14b-12-----|
-------------------------------------------------------------------------------|
---/14-14-14----14----/14-14-14----14----/14-14-14----14--12b-10---------------|
-10/12-12-12-10-12--10/12-12-12-10-12--10/12-12-12-10-12---------12------------|


(3:26)

Solo starts here

(3:43)

-------------------------------------------------------------------------|
-------------------------------------------------------------------------|
-------------------------------------------------------------------------|
-------------------------------------------------------------------------|
----/14-14-12b-10-----------14-14-14----/14-14-12b-10-----------14-14-14-|
--10/12-12--------12-10-10--12-12-12--10/12-12--------12-10-10--12-12-12-|


----------------------------------------------------------------|
----------------------------------------------------------------|
----------------------------------------------------------------|
----------------------------------------------------------------|
---/14-14-12b-10-----------14-14-14--14-14-14-14-14p12----------|
-10/12-12--------12-10-10--12-12-12--0--0--0--0--------14-12-14-|


(4:00)

-----------------------------------------------------------------------------|
--------------------------------------------------------------------------15-|
--------------------------------------------------------------------12h14----|
-----------------------------------------------------------------------------|
---/14-14-14----14----/14-14-14----14----/14-14-14----14--12b-10-------------|
-10/12-12-12-10-12--10/12-12-12-10-12--10/12-12-12-10-12---------12----------|


-----------------------------------------------------------------------------|
-----------------------------------------------------------------------------|
--------------------------------------------------------------------14b-12---|
-----------------------------------------------------------------------------|
---/14-14-14----14----/14-14-14----14----/14-14-14----14--12b-10-------------|
-10/12-12-12-10-12--10/12-12-12-10-12--10/12-12-12-10-12---------12----------|


(4:16)

"Hey I am just a regular guy but I broke my key
Broke up the keybit, can’t open the door, why does it have to be me?"

-------------------------------------------------------------------------------|
-12----14----12----14----12----14----12----12----15----------------------------|
-12h14-14-12-12h14-14-12-12h14-14-12-12h14----14-------------------------------|
-------------------------------------------------------------------------------|
-------------------------------------------------------------------------------|
-------------------------------------------------------------------------------|

"And I wanna ... get inside
I don’t wanna... stay outside tonight"

-------------------------------------------------------------------------------|
-12----14----12----14----12----14----12----12----15----------------------------|
-12h14-14-12-12h14-14-12-12h14-14-12-12h14----14-------------------------------|
-------------------------------------------------------------------------------|
-------------------------------------------------------------------------------|
-------------------------------------------------------------------------------|

"And I wanna... get into my bed
I don’t wanna... sleep outside my flat"

-------------------------------------------------------------------------------|
-12----14----12----14----12----14----12----12----15----------------------------|
-12h14-14-12-12h14-14-12-12h14-14-12-12h14----14-------------------------------|
-------------------------------------------------------------------------------|
-------------------------------------------------------------------------------|
-------------------------------------------------------------------------------|


(5:06)

"Always me"                                                   "Always me, yeah"

------------------------------------------------------------------------------|
--------------------------------------------------------------------------15--|
--------------------------------------------------------------------12h14-----|
------------------------------------------------------------------------------|
---/14-14-14----14----/14-14-14----14----/14-14-14----14--12b-10--------------|
-10/12-12-12-10-12--10/12-12-12-10-12--10/12-12-12-10-12---------12-----------|


------------------------------------------------------------------------------|
------------------------------------------------------------------------------|
--------------------------------------------------------------------14b-12----|
------------------------------------------------------------------------------|
---/14-14-14----14----/14-14-14----14----/14-14-14----14--12b-10--------------|
-10/12-12-12-10-12--10/12-12-12-10-12--10/12-12-12-10-12---------12-----------|


"Always me"                                                   "Always me, yeah"

------------------------------------------------------------------------------|
--------------------------------------------------------------------------15--|
--------------------------------------------------------------------12h14-----|
------------------------------------------------------------------------------|
---/14-14-14----14----/14-14-14----14----/14-14-14----14--12b-10--------------|
-10/12-12-12-10-12--10/12-12-12-10-12--10/12-12-12-10-12---------12-----------|


------------------------------------------------------------------------------|
------------------------------------------------------------------------------|
--------------------------------------------------------------------14b-12----|
------------------------------------------------------------------------------|
---/14-14-14----14----/14-14-14----14----/14-14-14----14--12b-10--------------|
-10/12-12-12-10-12--10/12-12-12-10-12--10/12-12-12-10-12---------12-----------|
Suggest correction
Give kudos to tab author, rate the tab!
1 2 3 4 5
comments
print report bad tab
guest
You may want to rate the tab now too:
select rating
Wanna post a correction for this tab? Suggest correction