Oops, an error
Loading. Please wait.

Earth Tab

1,935 views 1 this week
no commentswrite comment
1 2 3 4 5
please rate
add to favorites
launch autoscroll
font size
0
reset
how to read this tab
guitar tuner
Autoscroll
slow
fast
+/-
esc
set tempo
stop
Help us to improve Ultimate-Guitar.com Take our survey!
×
Author
Difficulty
Tuning
intermediate
C F A# D# G C
Tabbed by: DanielBatty
Web: http://www.danielb.me/
-----------------------------------------------------------------------------
This is track no. 6 off Colour Haze's 2006 album "Tempel". Everything's 
here except the solo.
-----------------------------------------------------------------------------
Artist: Colour Haze
Track: "Earth"
Album: "Tempel"
Tab for: Guitar
Tuning: C (standard)
-----------------------------------------------------------------------------
Song layout:

Main Riff x2
Main Riff (expanded) x2
Break for vocals...
Main Riff x1
Break for vocals...
Main Riff x1
Main Riff (expanded) x1
Bridge x4
Bridge 2 x1
Guitar solo
Bridge 3 x2
Break for vocals...
Bridge 3 x2
Break for vocals...
Bridge 3 x2
Break for vocals...
Main Riff x1
Break for vocals...
Main Riff x1
Main Riff (expanded) x3
Outro
-----------------------------------------------------------------------------
| /   slide up
| \   slide down
| h   hammer-on
| p   pull-off
| ~   vibrato
| b   bend
| x   ghost note
-----------------------------------------------------------------------------
Main Riff:
 c|------------------|--------------------|-----------------|---------------|
 G|------------------|--------------------|-----------------|---------------|
Eb|------------------|--------------------|-----------------|---------------|
Bb|---------------5b-|----------7p5-------|--------------5b-|---------------|
 F|--7--7--7--5-7----|--7--7--7-----7p5-5-|--7--7--7-5-7----|-7-7-7p5---7-5-|
 C|-(0)(0)(0)--------|-(0)(0)(0)----------|-(0)(0)(0)-------|---------7-----|

Main Riff (expanded):
 c|------------12-|------------------|------------12-|----------------|
 G|------------12-|-------10p8-------|------------12-|----------------|
Eb|------------12-|------------9p7-9-|------------12-|----------------|
Bb|-9-9-9-7-9--12-|-9-9-9------------|-9-9-9-7-9--12-|-9-9------------|
 F|-7-7-7-5-7--10-|-7-7-7------------|-7-7-7-5-7--10-|-7-7--7p5---5-7-|
 C|-0-0-0-0-0-----|-0-0-0------------|-0-0-0-0-0-----|-0-0--0---7-0-0-|

Bridge:
 c|-------------------------------------------------------|
 G|-------------------------------------------------------|
Eb|----x-12-12-------x-12-12------x-12-12------x-12-------|
Bb|----x-12-12-------x-12-12------x-12-12------x-12-------|
 F|-------------------------------------------------------|
 C|-12---------10-12--------10-12--------10-12------7-10--|

Bridge 2:
 c|-----------------|
 G|-----------------|
Eb|-----------------|
Bb|-9---7---6---7---|
 F|-7---5---4---5---|
 C|-0---0---0---0---|

Bridge 3:
 c|-------------------------------|
 G|-------------------------------|
Eb|-------------------------------|
Bb|-------------------------------|
 F|-7-----7------7------7p5---5-7-|
 C|--7-10---7-10---7-10-----7-----|
Suggest correction
Give kudos to tab author, rate the tab!
1 2 3 4 5
comments
print report bad tab
guest
You may want to rate the tab now too:
select rating
Wanna post a correction for this tab? Suggest correction