Oops, an error
Loading. Please wait.

Tao Nr 43 Tab

1,017 views 3 this week
1 commentread comment
1 2 3 4 5
please rate
add to favorites
launch autoscroll
font size
0
reset
how to read this tab
guitar tuner
Tab Pro tools
  • play this tab
  • loop segment
  • change instrument
  • show fretboard
  • metronome
×
Best way to learn
"Tao Nr 43"
Autoscroll
slow
fast
+/-
esc
set tempo
stop
Contributor
Difficulty
Tuning
intermediate
C G C F A D
-------------------------------------------------------------------------------
			     Tao N°43 - Colour Haze
-------------------------------------------------------------------------------
Tabbed by: Meuwh

Tuning: C F Bb Eb G C


-------------------------------------------------------------------------------
I did my best to write this song. It's not 100% correct, but it think it's
pretty close. Enjoy ! If you have any questions or corrections, PM me.
-------------------------------------------------------------------------------



************************************

| /   slide up
| \   slide down
| h   hammer-on
| p   pull-off
| ~   vibrato
| +   harmonic
| x   Mute note
| b   Bend
| pb  Pre-bend
| br  Bend release
| pbr Pre-bend release
| brb Bend release bend

************************************

				       x2
|--------------------------------------|
|--------------------------------------|
|--------------------------------------|
|-------12-----12----12/14-14-14h16----|
|-12h14----14-----14----------------14-|
|--------------------------------------|


(0:15)
|------------------------------------------------------|-------------------|
|------------------------------------------------------|-------------------|
|----------------------------------14----13~-13-13-13~-|--------14~--------|
|-------12----12----12/14-14-14h16----16---------------|-14-14~-----14-----|
|-12h14----14----14------------------------------------|-------------------|
|------------------------------------------------------|-------------------|


				       x2
|--------------------------------------|
|--------------------------------------|
|--------------------------------------|
|-------12-----12----12/14-14-14h16----|
|-12h14----14-----14----------------14-|
|--------------------------------------|

|------------------------------------------------------|-------------------|
|------------------------------------------------------|-------------------|
|----------------------------------14----13~-13-13-13~-|--------14~--------|
|-------12----12----12/14-14-14h16----16---------------|-14-14~-----14-----|
|-12h14----14----14------------------------------------|-------------------|
|------------------------------------------------------|-------------------|


 (0:52)

|----------------------------------------------------------------------------|
|17-17-12-12~-17-15-17-15-15~-15-15-14-12-14--------------------------12-----|
|--------------------------------------------14-14/16--12-14~-12-12h14--14-12|
|----------------------------------------------------------------------------|
|----------------------------------------------------------------------------|
|----------------------------------------------------------------------------|

|--------------------------------------------------------|
|-17-17-12-12~--17-15-17-15-15~--15-15-14-12-14----------|
|-----------------------------------------------14-14/16-|
|--------------------------------------------------------|
|--------------------------------------------------------|
|--------------------------------------------------------|



-----------------------------|
-------------------12--------|
--12-14~--12-12h14----14-12--|
-----------------------------|
-----------------------------|
-----------------------------|

|--------------------------------------------------------------------------|
|-17-17-12-12~-17-15-17-15-15~-15-15-14-12-14-12----12~---------14/16-14---|
|------------------------------------------------14----12-14-14-14/16-14---|
|------------------------------------------------------------------------12|
|--------------------------------------------------------------------------|
|--------------------------------------------------------------------------|


 (1:32)
|-----------------------------------|-------------------------------------|
|-----------------------------------|-------------------------------------|
|-----------------------------------|-------------------------------------|
|----12-------------12--------------|-------12----12-14-14-12h14-12-------|
|-14----14-14-12/14----14-12-14-14--|-12h14----14-------------------14-12-|
|-0---------------------------------|-------------------------------------|


 (1:43) Repeat (distortion)
|----------------------------------------|
|-14/16----------------------------14/16-|
|-14/16-----------------14----13---14/16-|
|-------------14b-14/16----16------------|
|-------12-12----------------------------|
|--------0--0----------------------------|

						Repeat couple of times
----------------------------------------------------------------------------|
----------------------------------------------------------------------------|
----------------------------------------------------------------------------|
----------------12----12------------------12----12--------------------------|
-12-12-14-12h14----14-----12-12-12--12h14----14----12-12-12-12--------------|
--0--0---------------------0--0--0------------------0--0--0--0--------------|



 (2:26) clean
|----------------------------------------|----------------------|
|-12-------12-------12-17-17-15-15-17-17-|-17-17-15-15-17-15-15-|
|----------------------------------------|----------------------|
|----14-14----14-14----------------------|----------------------|
|----------------------------------------|----------------------|
|----------------------------------------|----------------------|


-------------------------------------|
-15-15-14-12-14-12-------14/16\14----|
-------------------12-14-14/16\14----|
-------------------------------------|
-------------------------------------|
-------------------------------------|


 (2:42)				   x8
|----------------------------------|
|--14/16---------------------------|
|--14/16------12h14-------12-------|
|--------(14)-12h14-12h14----14-12-|
|----------------------------------|
|----------------------------------|


"The softest thing on the universe
Overcomes the hardest thing in the universe.
That without substance can enter where there is no room.
Hence I know the value of non-action.

Teaching without words and work without doing
Are understood by very few."

 (3:14)                        x12 (starts singing at 5th repeat)
|--------------------------------|---------------------------------|
|--------------------------------|---------------------------------|
|--------------------------------|---------------------------------|
|-7/9-------------------12-------|-16~-----------------------------|
|-5/7-12-12h14-14-12h14----14-12-|---------------------------------|
|-0-0-0--0-----0------------0--0-|---------------------------------|



 (4:00)
|------------------------------------------------------------------------|
|------------------------------------------------------------------------|
|-16-16-16-14-14-16-14-14-12----------12----12-14p12---------------------|
|----------------------------14-12h14----14----------14p12------------12-|
|----------------------------------------------------------14p12-12h14---|
|------------------------------------------------------------------------|

---------|
---------|
---------|
---12-14/|
-14------|
---------|


|---------------------------------|
|-14/16---------------------------|
|-14/16-----------------14----13--|
|-------------14b-14/16----16-----|
|-------12-12---------------------|
|--------0--0---------------------|


---------------------------------------------------------------------------|
-14/16---------------------------------------------------------------------|
-14/16---------------------------------------------------------------------|
----------------------12----12------------------12----12-------------------|
-------12-12-14-12h14----14-----12-12-12--12h14----14----12-12-12-12-------|
--------0--0---------------------0--0--0------------------0--0--0--0-------|


 (heavy distortion)
|-----------------------------------------------------------------------|
|-17-17-12-12~-17-15-17-15-15~--15-15-14-12-14-12----12~----------------|
|-------------------------------------------------14----12-14~-12-12h14-|
|-----------------------------------------------------------------------|
|-----------------------------------------------------------------------|
|-----------------------------------------------------------------------|


----------|
-12-------|
----14-12-|
----------|
----------|
----------|


|--------------------------------------------------------------------------|
|-17-17-12-12~-17-15-17-15-15~-15-15-14-12-14-12----12~---------14/16-14---|
|------------------------------------------------14----12-14-14-14/16-14---|
|------------------------------------------------------------------------12|
|--------------------------------------------------------------------------|
|--------------------------------------------------------------------------|


 (clean)
|-----------------------------------------------------------------------|
|-17-17-12-12~-17-15-17-15-15~--15-15-14-12-14-12----12~----------------|
|-------------------------------------------------14----12-14~-12-12h14-|
|-----------------------------------------------------------------------|
|-----------------------------------------------------------------------|
|-----------------------------------------------------------------------|


----------|
-12-------|
----14-12-|
----------|
----------|
----------|


|---------------------------------------------------------------------------|
|-17-17-12-12~-17-15-17-15-15~--15-15-14-12-14-12----12~---------14/16-14---|
|-------------------------------------------------14----12-14-14-14/16-14---|
|-------------------------------------------------------------------------12|
|---------------------------------------------------------------------------|
|---------------------------------------------------------------------------|
comments
We did not receive enough feedback on this tab! Please rate:
print report bad tab
1 2 3 4 5
1 comment total.
0 reply
a.bencherradi wrote on December 6 2015, 07:00 am

in DROP C the first part

x2
|--------------------------------------|
|--------------------------------------|
|--------------------------------------|
|-------12-----12----12/14-14-14h16----|
|-12h14----14-----14----------------14-|
|--------------------------------------|

seems more to me like two frets down on all the notes
something like this


|-----------------------------------------|
|-----------------------------------------|
|-----------------------------------------|
|-------10-----10----10-10/12-12-12h14----|
|-10h12----12-----12------------------12--|
|-----------------------------------------|

|-----------------------------------------|
|-----------------------------------------|
|-----------------------------------------|
|-------10-----10----10-10/12-12-12h14-14-|
|-10h12----12-----12----------------------|
|-----------------------------------------|

I want to post or [tab]
guest
You may want to rate the tab now too:
select rating
Please do not post tabs as comments. Select "correction" instead!