Oops, an error
Loading. Please wait.

Tempel Tab

10,409 views 3 this week
6 commentsread comments
1 2 3 4 5
x 6
add to favorites
launch autoscroll
font size
0
reset
how to read this tab
guitar tuner
Autoscroll
slow
fast
+/-
esc
set tempo
stop
Help us to improve Ultimate-Guitar.com Take our survey!
×
Author
Difficulty
Tuning
intermediate
C F A# D# G C
Tabbed by: DanielBatty
Web: http://www.danielb.me/
-----------------------------------------------------------------------------
This is the title track from Colour Haze's 2006 album "Tempel". Enjoy.
-----------------------------------------------------------------------------
Artist: Colour Haze
Track: "Tempel"
Album: "Tempel"
Tab for: Guitar
Tuning: C (standard)
-----------------------------------------------------------------------------
Song layout:

1st lick x8 (comes in at 1:17)
2nd lick x3
2nd lick (variation) x1
1st lick x4
1st lick (variation) x2
1st lick x1
1st lick (variation 2) x2
Guitar solo 1
Main riff x1
Main riff (variation) x6
Main riff (variation 2) x1
Main riff (variation) x1
Main riff x1
Main riff (variation) x2
Main riff (variation 2) x1
Main riff (variation) x3
Main riff (variation 2) x1
Main riff (variation) x1
Guitar solo 2 x1
Main riff (variation) x2
Main riff (variation 2) x1
Main riff (variation) x1
Main riff (variation 3) x3
Main riff (variation 4)
1st lick (variation) x3
1st lick (variation 2) x1
1st lick (variation 3) x2
1st lick (variation) x2
1st lick (variation 4) x1
2nd lick x3 3/4
-----------------------------------------------------------------------------
| /   slide up
| \   slide down
| h   hammer-on
| p   pull-off
| ~   vibrato
| x   ghost note
-----------------------------------------------------------------------------
1st lick:
 c|---------------------------------|
 G|---------------------------------|
Eb|---------------------------------|
Bb|---------------/9------/7-7------|
 F|------5h7~--------10--------/9~--|
 C|--0-0--------0-------------------|

2nd lick:
 c|----------------------------------|
 G|---------------------------10p9~--|
Eb|--9p8------------------x-x-9---~--|
Bb|------9~--9p8-0--------x-x--------|
 F|-------------/10-10-9~-x-x--------|
 C|----------------------------------|

2nd lick (variation):
 c|------------------------|
 G|------------------------|
Eb|--9p8-------------------|
Bb|------9~--9p8-0---------|
 F|-------------/10-10-9~--|
 C|------------------------|

1st lick (variation):
 c|---------------------------------------|
 G|---------------------------------------|
Eb|---------------------------------------|
Bb|---------------/9------7-7/9-11-12\----|
 F|------5h7~--------10---------12-14\----|
 C|--0-0--------0-------------------------|

1st lick (variation 2):
 c|-----------------------|
 G|-----------------------|
Eb|-----------9/11-7/9-7--|
Bb|-----------7/9--5/7----|
 F|------5h7~-------------|
 C|--0-0------------------|

Guitar solo 1:
 c|------------------------------------------------|
 G|------------------------------------------------|
Eb|------------------------------------------------|
Bb|------------------------------------------------|
 F|------/14-12h14-14/16-12-12h14p12-11h12-11------|
 C|--0-0-------------------------------------------|

 c|------------------------------------------------|
 G|------------------------------------------------|
Eb|------------------------------------------------|
Bb|------------------------------------------------|
 F|------/14-14/16-12h14p12-12-11h12p11------------|
 C|--0-0-------------------------------------------|

 c|------------------------------------------------|
 G|------------------------------------------------|
Eb|------------------------------------------------|
Bb|----------------------------------------14------|
 F|------/14-12h14-14/16-12-12h14p12-11h12---------|
 C|--0-0-------------------------------------------|

 c|------------------------------------------------|
 G|------------------------------------------------|
Eb|------------------------------------------------|
Bb|------------------------------------------------|
 F|------/14-14/16-12h14p12-11h12-11-11h12-11------|
 C|--0-0-------------------------------------------|

 c|--------------------------------------------------------|
 G|--------------------------------------------------------|
Eb|-------14h16-16-14h16-16--------------------------------|
Bb|-------------------------14-14-14-17p16-14-------14-----|
 F|-------------------------------------------17-17----14--|
 C|--0-0---------------------------------------------------|

 c|-------------------------------------------------------------|
 G|----------------------------15h17----------15h17-------------|
Eb|-------14h16-16-14h16-16-16-------14h16-16-------14-14h16----|
Bb|----------------------------------------------------------14-|
 F|-------------------------------------------------------------|
 C|--0-0--------------------------------------------------------|

 c|----------------------------------------14h17-14------|
 G|----------------------14h15-15-15-14h15----------15---|
Eb|-------14h16-16-14h16---------------------------------|
Bb|------------------------------------------------------|
 F|------------------------------------------------------|
 C|--0-0-------------------------------------------------|

 c|-------------------------12-------------------------------------------------|
 G|--14h15-14------------12----15----------------------------------------------|
Eb|-------------------12----------14h16-14-------11h12p11-------12---11--------|
Bb|-------------12/14----------------------16-12----------12-14----12---12-14--|
 F|----------------------------------------------------------------------------|
 C|----------------------------------------------------------------------------|

Crazy middle-eastern-sounding bridge:
 c|---------------------------------------------------------------------------|
 G|---------------------------------------------------------------------------|
Eb|--------11h12-12~-------11h12-12~-------11h12-12~-11h12-11h12-11-12h14-11--|
Bb|--12h14-----------12h14-----------12h14------------------------------------|
 F|---------------------------------------------------------------------------|
 C|---------------------------------------------------------------------------|

 c|---------------------------------------------------------------------------|
 G|---------------------------------------------------------------------------|
Eb|--------11h12-12~-------11h12-12~-12h14-11-11-11h12-14-11-11h12p11---------|
Bb|--12h14-----------12h14----------------------------------------------------|
 F|---------------------------------------------------------------------------|
 C|---------------------------------------------------------------------------|

 c|------------------------------------------------------------------------|
 G|--------------12~--------------12~------------12~-12/14-14--------------|
Eb|--------11h12------------11h12----------11h12--------------14-14h16-14--|
Bb|--12h14-----------12h14-----------12h14---------------------------------|
 F|------------------------------------------------------------------------|
 C|------------------------------------------------------------------------|

 c|---------------------------------------------------------------------|
 G|--------------12~--------------12~-12-12/14--------------------------|
Eb|--------11h12------------11h12--------------14-16-11b12b11-9-9h11-9--|
Bb|--12h14-----------12h14----------------------------------------------|
 F|---------------------------------------------------------------------|
 C|---------------------------------------------------------------------|

Main riff (FUZZ ON!):
 c|------------------------------------------------------------|
 G|------------------------------------------------------------|
Eb|------------------------------------------------------------|
Bb|--------9-9--------9--9----------11-11---------11/12-12-----|
 F|--------7-7--------7--7----------9--9----------9-/10-10-----|
 C|--0-0-0-0-0--0-0-0-0--0--0-0-0-0-0--0--0-0-0-0-0-----0------|

 c|-----------------------------------------------------------|
 G|-----------------------------------------------------------|
Eb|-----------------------------------------------------------|
Bb|--------9-9---------11-11--------11/12-12--------12/14-14--|
 F|--------7-7---------9--9---------9-/10-10--------10/12-12--|
 C|--0-0-0-0-0---0-0-0-0--0---0-0-0-0-0---0---0-0-0-0--0--0---|

 c|------------------------------------------------------------|
 G|------------------------------------------------------------|
Eb|------------------------------------------------------------|
Bb|--------9-9--------9--9----------11-11---------11/12-12-----|
 F|--------7-7--------7--7----------9--9----------9-/10-10-----|
 C|--0-0-0-0-0--0-0-0-0--0--0-0-0-0-0--0--0-0-0-0-0-----0------|

 c|---------------------------------------------------------------------------|
 G|-----------------------------------------------------------------14/16-16--|
Eb|-----------------------------------------------------------------12/14-14--|
Bb|--------9-9---------11-11--11/12-12-12--12/14-14-14--14/16-16-16-----------|
 F|--------7-7---------9--9---9-/10-10-10--10/12-12-12--14/16-16-16-----------|
 C|--0-0-0-0-0---0-0-0-0--0---------------------------------------------------|

Main riff (variation):

 c|-------------------------------------------------------------|
 G|------17-15-15-12-10-10-10/12-12-12-10-10-10h12-12-12--------|
Eb|------16-14-16-11-9--9--9/11--11-11-------------------9-9-9--|
Bb|-------------------------------------------------------------|
 F|-------------------------------------------------------------|
 C|--0-0--------------------------------------------------------|

Main riff (variation 2):

 c|----------------------------------------------|
 G|------17-15-17-17/19-15-15-15-15h17-17-17-----|
Eb|------16-14-------------------------------16--|
Bb|----------------------------------------------|
 F|----------------------------------------------|
 C|--0-0-----------------------------------------|


Guitar solo 2 (this tab isn't deadly accurate):
 c|-------------------------------------------------------------------|
 G|--17-19p17-15-15-15h17-15-17b18b17-17-15h17-15--14h15-14-14h15-14--|
Eb|-------------------------------------------------------------------|
Bb|-------------------------------------------------------------------|
 F|-------------------------------------------------------------------|
 C|-------------------------------------------------------------------|

 c|-------------------------------------------------------------------|
 G|--17-19p17-15-15-15h17-15-17h19 17-17-15h17-15--14h15-14-14h15-14--|
Eb|-------------------------------------------------------------------|
Bb|-------------------------------------------------------------------|
 F|-------------------------------------------------------------------|
 C|-------------------------------------------------------------------|

 c|-----------------------------------------------------------------------------------------|
 G|--15-17b18b17-15-14h15-14--12-12p10-10h12--12-12h15-17-15-15h17-15h17-15h17-15h17-19-12--|
Eb|-----------------------------------------------------------------------------------------|
Bb|-----------------------------------------------------------------------------------------|
 F|-----------------------------------------------------------------------------------------|
 C|-----------------------------------------------------------------------------------------|

 c|------------------------------------------------------------------------------------|
 G|--10-10h12-12-12-12-12-12-10h12-10h12-12-12/14-14-14-14-14-12h14-12h14-12h14-15-15--|
Eb|------------------------------------------------------------------------------------|
Bb|------------------------------------------------------------------------------------|
 F|------------------------------------------------------------------------------------|
 C|------------------------------------------------------------------------------------|

 c|------------------------------------------------------------------------------------|
 G|--10-10h12-12-12-12-12-12-10h12-10h12-12-12/14-14-14-14-14-12h14-12h14-12h14-15-15--|
Eb|------------------------------------------------------------------------------------|
Bb|------------------------------------------------------------------------------------|
 F|------------------------------------------------------------------------------------|
 C|------------------------------------------------------------------------------------|

 c|------------------------------------------------------------------------------------|
 G|--10-10h12-12-12-12-12-12-10h12-10h12-12-12/14-14-14-14-14-12h14-12h14-12h14-15-15--|
Eb|------------------------------------------------------------------------------------|
Bb|------------------------------------------------------------------------------------|
 F|------------------------------------------------------------------------------------|
 C|------------------------------------------------------------------------------------|

 c|--------------------------------------------------19-19-19-17-17-17--|
 G|--10/12-12-12--12/14-14-14--14/15-15-15--15/17-17--------------------|
Eb|---------------------------------------------------------------------|
Bb|---------------------------------------------------------------------|
 F|---------------------------------------------------------------------|
 C|---------------------------------------------------------------------|

Main riff (variation 3):
 c|------------------------------------------|
 G|------------------------------------------|
Eb|------------------------------------------|
Bb|-------14-12-14---------------------------|
 F|----------------14--12-12-12/14-14-14-----|
 C|--0-0---------------------------------12--|

Main riff (variation 4):
 c|-------------------------------------------|
 G|-------------------------------------------|
Eb|-------14~---------------------------------|
Bb|-------14~-12-14---------------------------|
 F|-----------------14--12-12-12/14-14-14-----|
 C|--0-0----------------------------------12--|

 c|-------------------------------------------|
 G|-------------------------------------------|
Eb|-------14~---------------------------------|
Bb|-------14~-12-14---------------------------|
 F|-----------------14--12-12-12/14-14-14-----|
 C|--0-0----------------------------------12--|

 c|-------------------------------------------|
 G|-----------14-14---------------------------|
Eb|-------14~-12-14-16--14-14-14-16-16-16-----|
Bb|-------14~-12-14-14--12-12-12-14-14-14-----|
 F|-----------------14--12-12-12/14-14-14-14--|
 C|--0-0----------------------------------12--|

 c|-------------------------------------------|
 G|-----------14-14---------------------------|
Eb|-------14~-12-14-16--14-14-14-16-16-16-----|
Bb|-------14~-12-14-14--12-12-12-14-14-14-----|
 F|-----------------14--12-12-12/14-14-14-14--|
 C|--0-0----------------------------------12--|

1st lick (variation):
 c|--------------------------|
 G|--------------------------|
Eb|--------------------------|
Bb|----------5/7-5--/7-7-----|
 F|------5/7--------------9--|
 C|--0-0---------------------|

1st lick (variation 2):
 c|--------------------------------------|
 G|--------------------------------------|
Eb|--------------------------------------|
Bb|----------5/7-5--5h9-5-5-4h5-4-4h5-4--|
 F|------5/7-----------------------------|
 C|--0-0---------------------------------|

1st lick (variation 3):
 c|----------------------------|
 G|----------------------------|
Eb|----------------------------|
Bb|----------5/7-5--7/9-11-7\--|
 F|------5/7------------9--9\--|
 C|--0-0-----------------------|

1st lick (variation 3):
 c|---------------------------|
 G|---------------------------|
Eb|---------------------------|
Bb|-----------------5------7--|
 F|------5h7-9--5h7----5h7----|
 C|--0-0----------------------|
Suggest correction
comments
print report bad tab
6 comments total. Showing first comments.
0 reply
Meuwh 136 Sep 03, 2011 01:46 PM

Thank you for this epic song !

I'm working on "Love" and it's almost ready :) I'll try to post it asap

0 reply
Meuwh 136 Sep 03, 2011 01:57 PM

A# and D# are a bit strange... ?

0 reply
DanielBatty 166 Sep 04, 2011 06:50 AM

Thanks :)

What's strange about A# and D#? Remember they're the same as Bb and Eb respectively.

guest
You may want to rate the tab now too:
select rating
Wanna post a correction for this tab? Suggest correction