Oops, an error
Loading. Please wait.

8 Years tab

275 views 6 this week
no commentswrite comment
1 2 3 4 5
3 more votes to show rating
add to favorites
×
Save as Personal and add changes to this tab that will be seen only by you. Learn more ›
×
You can save this tab as Personal to edit and correct it or add notes. All changes will be seen only by you. Learn more »
launch autoscroll
font size
0
reset
how to read this tab
guitar tuner
edit
Autoscroll
slow
fast
+/-
esc
set tempo
stop
Author
Difficulty
2nd tab ever made so go easy when pointing out mistakes. I had no 
other references to go on since the band are pretty small. I was 
quite surprised seeing as this is their most popular song and 
there were no tabs out there. 

Here's a link to the original song (https://www.youtube.com/watch?v=SCXGwg14jd0)
and here is a link to me playing it if you need some visual help 
playing each part (https://www.youtube.com/watch?v=B2IsERIHoPQ). 
Please note in the video I don't play the outro lead as I only
figured that out a month after recording it.


[Verse]

e|---------------------------------------------------------------|
B|---------------------------------------------------------------|
G|--4--1---------------------------------------------------------|
D|--4--2---5-----------------------------------------------------|
A|--2--2---5-----------------------------------------------------|
E|-----0---3-----------------------------------------------------|


[Pre-Chorus] 

  The E chord is palm muted
e|---------------------------------------------------------------|
B|---------------------------------------------------------------|
G|---1-----------------------------------------------------------|
D|---2---9p7-7-7p11-7-7--7---------------------------------------|
A|---2---7-7-7-7----7-10-9---------------------------------------|
E|---0-----------------------------------------------------------|


[1st Chorus Lead]

e|---------------------------------------------------------------|
B|---------------------------------------------------------------|
G|---------------------------------------------------------------|
D|-----9---7--6----5---------------------------------------------|
A|---------------------------------------------------------------|
E|---------------------------------------------------------------|


[1st Chorus Rhythm]

 Listen for Rhythm 
e|---------------------------------------------------------------|
B|--17---12--15-17--10/12--10------------------------------------|
G|--16---11--14-16--9-/11--9-------------------------------------|
D|---------------------------------------------------------------|
A|---------------------------------------------------------------|
E|---------------------------------------------------------------|


[3rd Chorus] 

The Lead play this while the Rhythm plays the same as the 1st.
Make sure you get the right timings as each chord is played half a sec 
after the main Rhythm.

e|---------------------------------------------------------------|
B|-12-15-17--19---10/12------10-10-10-12-------------------------|
G|-11-14-16--18---9-/11-/9---9--9--9--11-------------------------|
D|---------------------------------------------------------------|
A|---------------------------------------------------------------|
E|---------------------------------------------------------------|


[Bridge Rhythm] 

This has some fuzz on it, The B is played a few times before 
the E and G so listen out for the change. 

e|---------------------------------------------------------------|
B|---------------------------------------------------------------|
G|--4-------1----------------------------------------------------|
D|--4-------2-----5----------------------------------------------|
A|--2-------2-----5----------------------------------------------|
E|----------0-----3----------------------------------------------|


[Outro Lead] 

This gets progressively louder as the outro goes on. It
starts around the 2:34 mark. The 16th fret is played a few times 
before the others so listen for timings. 
e|---------------------------------------------------------------|
B|----------------15-----15--------------------------------------|
G|------16----13-----12------------------------------------------|
D|---------------------------------------------------------------|
A|---------------------------------------------------------------|
E|---------------------------------------------------------------|


The [outro Rhythm] is the same as the verse.

After the outro it's one round of the 2nd chorus and then the song ends.

Here's the structure:
Intro
Verse
Pre-chorus
Chorus
Verse
Pre-Chorus
Chorus
Verse
Pre-Chorus
Chorus
Bridge
Outro
Chorus (1 bar only)


e|---------------------------------------------------------------|
B|---------------------------------------------------------------|
G|---------------------------------------------------------------|
D|---------------------------------------------------------------|
A|---------------------------------------------------------------|
E|---------------------------------------------------------------|

***************************************

| /  slide up
| \  slide down
| h  hammer-on
| p  pull-off
| ~  vibrato
| +  harmonic
| x  Mute note

***************************************
Suggest correction
Creating personal tab
Creating personal tab
You can edit any tab online and save it as your Personal.

You can edit, replace or remove any tab part or add personal notes – all changes will be seen only by you.

Personal tabs can be accessed anytime from any device, even offline.
Learn more »
Give kudos to tab author, rate the tab!
1 2 3 4 5
comments
print report bad tab
guest
You may want to rate the tab now too:
select rating
Wanna post a correction for this tab? Suggest correction