Oops, an error
Loading. Please wait.

Sleeping On The Blacktop Tab

2,002 views 348 this week
no commentswrite comment
1 2 3 4 5
x 3
add to favorites
launch autoscroll
font size
0
reset
how to read this tab
guitar tuner
Autoscroll
slow
fast
+/-
esc
set tempo
stop
Help us to improve Ultimate-Guitar.com Take our survey!
×
Author
Capo
2nd fret
----------------------------------------------------------------- 
SLEEPIN ON THE BLACKTOP - Colter Wall 
----------------------------------------------------------------- 
Tabbed by: Austin Hefner
Tuning: Full step down, capo 2 (a.k.a. open)

[Verse]

e|--------------------------------------------------|
B|--3p---3------3-----3----3p----3------3------3----|
G|--3p---0-----0-----0-----3p----0-----0------0-----|
D|--------------------------------------------------|
A|---------0h1---1h3----------------0h1---1h3-------|
E|3----------------------3--------------------------|

e|--------------------------------------------------|
B|--3p---3------3-----3----3p--------3--------------|
G|--3p---0-----0-----0-----3p-------0---------------|
D|------------------------------0h3-----------------|
A|---------0h1---1h3--------------------3---1-------|
E|3----------------------3---------------------3----|

[Chorus]

e|------1-----1--3------------------0-0---|
B|------3-----3--3--------3/5-------5-5---|
G|------0-----0--0---------0--------0-0---|     X3
D|------0-----0--0------------------0-0---|
A|------x-----x--------1--------3---3-3---|
E|-3----3-----3---------------------------|


e|----------------------------|
B|----3p--------3-------------|
G|----3p-------0--------------|
D|---------0h3----------------|
A|-----------------3---1------|
E|--3---------------------3---|

[Outro]

e|-------------------------------------------------------------|
B|----3-------3-------3------3------3-------3-------3------3---|
G|-------------------------------------------------------------|
D|--------4---------------4--------------4--------------4------|
A|-------------------------------------------------------------|
E|-3--------------3--------------3--------------3--------------|

e|-------------------------------------------------------------|
B|----3-------3-------3------3------3-------3-------3------3---|
G|-------------------------------------------------------------|
D|--------2---------------2--------------2--------------2------|
A|-------------------------------------------------------------|
E|-3--------------3--------------3--------------3--------------|

e|-------------------------------------------------------------|
B|----3-------3-------3------3------3-------3-------3------3---|
G|-------------------------------------------------------------|
D|--------0---------------0--------------0--------------0------|
A|-------------------------------------------------------------|
E|-3--------------3--------------3--------------3--------------|

e|---------------------------------------|
B|----3p-----------3---------------------|
G|----3p---------0-----------------------|
D|----------0h3--------------------------|
A|--------------------3----1-------------|
E|-3-----------------------------0/3-----|

*****************************************

| /  slide up
| \  slide down
| h  hammer-on
| p  pull-off
| ~  vibrato
| +  harmonic
| x  Mute note

*****************************************
Suggest correction
Give kudos to tab author, rate the tab!
1 2 3 4 5
comments
print report bad tab
guest
You may want to rate the tab now too:
select rating
Wanna post a correction for this tab? Suggest correction