Oops, an error
Loading. Please wait.

Virgin Veins chords

1,522 views 15 this week
1 commentread comment
1 2 3 4 5
x 7
add to favorites
×
Save as Personal and add changes to this tab that will be seen only by you. Learn more ›
×
You can save this tab as Personal to edit and correct it or add notes. All changes will be seen only by you. Learn more »
launch autoscroll
font size
0
reset
transpose
0
reset
display chords
guitar tuner
edit
Autoscroll
slow
fast
+/-
esc
set tempo
stop
Strumming
There is no strumming pattern for this song yet. and get +5 IQ
Eb  G  Cm Bb Ab    

Eb
what a drag 
G
beautiful and sad 
Cm          Bb      Ab
a graveyard on the sun 
Eb
fucking up 
         G
you just self destruct 
Cm        Bb    Ab
abandoned and undone 


G
the heart is a monument 
Ab                   Eb
to a childhood of abuse 
G
a quiet suffering 
Ab                     Eb
that knows no one wants you 
Ab
so lonely 
Abm
so ugly 
          Eb
and confused 

Eb  G  Cm Bb Ab  


Eb
virgin veins 
          G
hold the rushing pain 
     Cm        Bb     Ab
of a past that cannot die 
Eb         G
crippling everything 
Cm       Bb     Ab
in cages of desire 


G
the heart is a monument 
Ab                Eb
to a childhood of abuse 
G
a quiet suffering 
Ab                     Eb
that knows no one wants you 
Ab
so lonely 
Abm
so ugly 
         Eb
and confused

            
            
Suggest correction
Creating personal tab
Creating personal tab
You can edit any tab online and save it as your Personal.

You can edit, replace or remove any tab part or add personal notes – all changes will be seen only by you.

Personal tabs can be accessed anytime from any device, even offline.
Learn more »
comments
print report bad tab
1 comment total.
+3 reply
flowermouthxxx 49 Aug 10, 2016 05:23 PM

Hey thanks for these chords it seems to play along to the song pretty perfect! I tried to figure out the little solo section in the song and I'm not sure if this is correct but it sounds alright playing along. Not great at tabbing but hope this helps!

E------------------------------------------
B--------------4--6---8h9p8--11--9---------
G-------3--3h5----------------------3/5----
D---4h5------------------------------------
A------------------------------------------
E------------------------------------------

E-------------------------------------------------
B--------------------4--6b--4--6/8--6h8--11-------
G--------------3--5--------------------------3/5--
D---0h1--3--5-------------------------------------
A-------------------------------------------------
E-------------------------------------------------

guest
You may want to rate the tab now too:
select rating
Wanna post a correction for this tab? Suggest correction