Oops, an error
Loading. Please wait.

Violence Tab

364 views 12 this week
no commentswrite comment
1 2 3 4 5
please rate
add to favorites
launch autoscroll
font size
0
reset
how to read this tab
guitar tuner
Autoscroll
slow
fast
+/-
esc
set tempo
stop
Help us to improve Ultimate-Guitar.com Take our survey!
×
Author
Difficulty
Violence by: Combat 84

Intro:

E|--------|
B|--------|
G|--2--2--|
D|--2--2--|
A|--0--0--|
E|--------|x4

Verse:

E|-------------------------------------------|
B|-------------------------------------------|
G|-------------------------------------------|
D|--2--2--5--2---2--2--5--2---2--2--5--------|
A|--0--0--3--0---0--0--3--0---0--0--3--5--5--|
E|-------------------------------------3--3--|
    .  .  .  .   .  .  .  .   .  .  .  .  .
Chorus:

E|----------------------------------|
B|----------------------------------|
G|--4--4--4--2-------2--2--2--------|
D|--2--2--2--0--4----0--0--0--5--2--|
A|--------------2-------------3--0--|
E|----------------------------------|


By:themechanix100
Suggest correction
Give kudos to tab author, rate the tab!
1 2 3 4 5
comments
print report bad tab
guest
You may want to rate the tab now too:
select rating
Please do not post tabs as comments. Select "correction" instead!