Oops, an error
Loading. Please wait.

Always Bass Tab

722 views 1 this week
no commentswrite comment
1 2 3 4 5
3 more votes to show rating
add to favorites
launch autoscroll
font size
0
reset
guitar tuner
Autoscroll
slow
fast
+/-
esc
set tempo
stop
Help us to improve Ultimate-Guitar.com Take our survey!
×
Author
 / slide
 * repeat a few times

 tuning: G,D,A,Db

INTRO:
----
----
----
-0*-

-------------------------------------------------------------------------------------------------|
-----------------------------------------------------------------------------------------22-2-22-|
-00-0-00---------4-2-4-5-4-2-4-00-0-00------22-2-----------------0-00-0-22-2-22-44-4-44----------|
---------77-7-77-----------------------33-3------77-7-77-77-7-77---------------------------------|

------------------------------------------------------------------------------------------------|
-44-4-44-44-4-44-00-0-00-00-0-00----------------------------------------------------------------|
-------------------------------------------------00-0-00--------------------------00-0-00-------|
---------------------------------00-0-0-00-00-00---------55-5-55-00-0-0-00-00-00----------55-55-|

                                        2X                                     4X
------------------------------------------I---------------------------------------|I
------------------------------------------I---------------------------------------|I
-00-0-00-0-00-0-00-0----------------------I-44-4-445-44-4-445-44-4-445------22-2--|I
---------------------77-7-77-7-77-7-77-7--I----------------------------33-3-------|I

                                        4X
------------------------------------------|
------------------------------------------|
-00-0-00-0-00-0-00-0----------------------|
---------------------77-7-77-7-77-7-77-7--|

----------------------------------------------|
----------------------------------------------|
-44-5-44-5-44-5-22-5-44-5-44-5-44-5-----------|
------------------------------------12/5-12/5-|   12! not 1&2..

-------------------------------------------|
-------------------------------------------|
-44-5-44-5-44-5-22-5-----------------------|
---------------------00-0-00-0-00-0-00-0-0-|

i play this way.. if you find it bad plz send me the corrections..
  xxSID
Suggest correction
Give kudos to tab author, rate the tab!
1 2 3 4 5
comments
print report bad tab
guest
You may want to rate the tab now too:
select rating
Wanna post a correction for this tab? Suggest correction