Oops, an error
Loading. Please wait.

Because Of All Tab

3,380 views 6 this week
no commentswrite comment
1 2 3 4 5
accurate
x 4
add to favorites
launch autoscroll
font size
0
reset
how to read this tab
guitar tuner
Autoscroll
slow
fast
+/-
esc
set tempo
stop
Help us to improve Ultimate-Guitar.com Take our survey!
×
Author
Difficulty
Tuning
intermediate
C# G# C# F# A# D#
Band: Comeback Kid
Song: Because Of All

Tabbed by: Mattes87
Tuning:    Drop C# (Db;Ab;Db;Gb;Bb;Eb)
Notes:     'X' --> don't play string
           '*' above Chord --> Palm Muted
          


Intro
Eb|----------------------------------|----------|-------------------------------------------------|
Bb|----------------------------------|----------|------------------------------------8------10----|
Gb|--7-------5-------3-------0-------|----------|---12------11-------9-------7-------7-------7----|
Db|--7(8x)---7(8x)---5(8x)---0(8x)---|----------|----X(3x)---X(8x)---X(2x)---X(3x)---X(8x)---X(8x)|
Ab|----------------------------------|---5------|---10-------9-------7-------5-------5-------5----|
Db|----------------------------------|---0------|-------------------------------------------------|
  |_____________play_6x______________|  (hold)



Verse
Eb|----------------------------------------|------------------------------------------------------|
Bb|----------------------------------------|------------------------------------------------------|
Gb|--7-------------------------------------|------------------------------------------------------|
Db|--7(5x)---0-------3-------8-------5-----|------------------------------------------------------|
Ab|--5-------0(4x)---3(7x)---8(8x)---5(8x)-|------------------------------------------------------|
Db|----------0-------3-------8-------5-----|------------------------------------------------------|
  |_______________play_2x__________________|



Chorus
Eb|-------------------------------|-----------------|-------------------------|-------------------|
Bb|-------------------------------|-----------------|-------------------------|-------------------|
Gb|-------------------------------|-----------------|----*-------------*------|----*---------*----|
Db|-4-------3-------8-------5-----|---0-------2-----|-6--6------6------6------|-6--6------6--6----|
Ab|-5(8x)---3(8x)---8(8x)---5(8x)-|---0(8x)---3(8x)-|-6--6(4x)--6(2x)--6(2x)--|-6--6(2x)--6--6(2x)|
Db|-4-------3-------8-------5-----|---0-------2-----|-6--6------6------6------|-6--6------6--6----|
  |____________play_3x____________|                 |_________play_2x_________|



Bridge
Eb|----------------------|-------------------------------------|----------------------------------|
Bb|----------------------|-------------------------------------|----------------------------------|
Gb|--7---5---8---*-------|---7---5---8---*------10---6---*-----|----------------------------------|
Db|--7---5---8---0-------|---7---5---8---0------10---6---0-----|----------------------------------|
Ab|--5---3---6---0(22x)--|---5---3---6---0(14x)--8---4---0(4x)-|----------------------------------|
Db|--------------0-------|---------------0---------------0-----|----------------------------------|
  |______play_3x_________|

Eb|---------------------------------------------|-------------------------------------------------|
Bb|---------------------------------------------|-------------------------------------------------|
Gb|--7---5---8---*-----------*-----------*------|---7---5---8---*-----------------10---6---*------|
Db|--7---5---8---0-----0--0--0-----0--0--0------|---7---5---8---0-----0--0--0-----10---6---0------|
Ab|--5---3---6---0(8x)-0--0--0(2x)-0--0--0(4x)--|---5---3---6---0(8x)-0--0--0(2x)--8---4---0(4x)--|
Db|--------------0-----0--0--0-----0--0--0------|---------------0-----0--0--0--------------0------|
  |________________play_3x______________________|



Verse 2
Eb|-----------------------------------|-----------------------------------------------------------|
Bb|-----------------------------------|-----------------------------------------------------------|
Gb|---7-------5-------3-------0-------|-----------------------------------------------------------|
Db|---7(8x)---7(8x)---5(8x)---0(8x)---|-----------------------------------------------------------|
Ab|-----------------------------------|-----------------------------------------------------------|
Db|-----------------------------------|-----------------------------------------------------------|
  |_____________play_5x_______________|  



Chorus 2
Eb|--------------------------------|---------------------------------|----------------------------|
Bb|--------------------------------|---------------------------------|----------------------------|
Gb|--------------------------------|---------------------------------|----------------------------|
Db|--4-------3-------8-------5-----|---4-------3-------8-------5-----|----------------------------|
Ab|--5(8x)---3(8x)---8(8x)---5(8x)-|---0(8x)---3(8x)---8(8x)---5(8x)-|----------------------------|
Db|--4-------3-------8-------5-----|---4-------3-------8-------5-----|----------------------------|
  |____________play_2x_____________|_____________play_2x_____________|               



Ending
Eb|------------------------------------------------------------------|----------------------------|
Bb|------------------------------------------------------------------|----------------------------|
Gb|---7--*-----7--7--*-----7--7--*-----7--7--*-----7--7--*--*--*--*--|----------------------------|
Db|---7--0-----7--7--0-----7--7--0-----7--7--0-----7--7--0--0--0--0--|---0------------------------|
Ab|---5--0(2x)-5--5--0(2x)-5--5--0(2x)-5--5--0(2x)-5--5--0--0--0--0--|---0------------------------|
Db|------0-----------0-----------0-----------0-----------0--0--0--0--|---0------------------------|
  |_____________________________play_2x______________________________|  (hold)
Suggest correction
comments
print report bad tab
guest
You may want to rate the tab now too:
select rating
Wanna post a correction for this tab? Suggest correction