Oops, an error
Loading. Please wait.

Defeated Tab

4,094 views 1 this week
no commentswrite comment
1 2 3 4 5
3 more votes to show rating
add to favorites
launch autoscroll
font size
0
reset
how to read this tab
guitar tuner
Autoscroll
slow
fast
+/-
esc
set tempo
stop
Help us to improve Ultimate-Guitar.com Take our survey!
×
Difficulty
Tuning
intermediate
C G C F A D
-------------------------------------------------------------------------------
                             DEFEATED - Comeback Kid
-------------------------------------------------------------------------------
Tabbed by:Brad
Email:brad_feor@hotmail.com
This is my first tab ever, I was messin around and found out this much of the song so i
i might as well post it as my first tab, feel free to change anything
Tuning:drop C sharp
Intro, just one guitarist
e|---------------------------------------------------------------------------|
B|---------------------------------------------------------------------------|
G|-------------------------77-8----------77-8----------77--------------------|
D|8----0-----77-8----0-----XX-X----0-----XX-X----0-----XX-8----0-----77-8----|
A|8----0-----77-8----0-----55-6----0-----55-6----0-----55-8----0-----77-8----|
E|8-XX-0-XXX-77-8-XX-0-XXX------XX-0-XXX------XX-0-XXX----8-XX-0-XXX-77-8-XX-|
                                    |Rest of band comes in, Play 4x|
e|---------------------------------------------------------------------------|
B|---------------------------------------------------------------------------|
G|------77-8----------77-12------------------------------------77-8----------|
D|0-----XX-X----0-----XX-X-----0-----77-8---------77-8---------xx-x----------|
A|0-----55-6----0-----55-10----0-----77-8---------77-8---------55-6----------|
E|0-XXX------XX-0-XXX-------XX-0-XXX-77-8-xxxxxxx-77-8-xxxxxxx------xxxxxxx--|

e|---------------------------------------------------------------------------|
B|---------------------------------------------------------------------------|
G|1111-12--------------------------------------------------------------------|
D|x-x--x---------------------------------------------------------------------|
A|9-9--10--------------------------------------------------------------------|
E|--------xxxxxxx------------------------------------------------------------|
                                   |Repeat Chorus thingy 6X |
e|---------------------------------------------------------------------------|
B|---------------------------------------------------------------------------|
G|----------------------------------9--121212-101010-1414--7-----------------|
D|------------------------------0---x--x-x-x---x-x-x-x-x---x-----------------|
A|------------------------------0---7--101010--8-8-8-1212--5-----------------|
E|888888888888888\777777777777770--------------------------------------------|

e|---------------------------------------------------------------------------|
B|---------------------------------------------------------------------------|
G|--------------4-------------------------4---------4-4----------------------|
D|0-2-3-5-3-2-0-x-2-3-5-3-0-0-2-3-5-3-2-0-x-2-3-5-3-x-x----------------------|
A|0-2-3-5-3-2-0-2-2-3-5-3-0-0-2-3-5-3-2-0-2-2-3-5-3-2-2----------------------|
E|0-2-3-5-3-2-0---2-3-5-3-0-0-2-3-5-3-2-0---2-3-5-3-----333333333333333333333|
                                                        xxxxxxxxxxxxxxxxxxxxx
e|---------------------------------------------------------------------------|
B|---------------------------------------------------------------------------|
G|4-4--------------------4---------------4---------4-4--------------4--------|
D|x-x--------------------x-0-2-3-5-3-2-0-x-2-3-5-0-x-x--2-3-5-3-2-0-x-2-3-5-0|
A|2-2--------------------2-0-2-3-5-3-2-0-2-2-3-5-0-2-2--2-3-5-3-2-0-2-2-3-5-0|
E|----333333333333333333---0-2-3-5-3-2-0---2-3-5-0------2-3-5-3-2-0---2-3-5-0|
      xxxxxxxxxxxxxxxxxx
e|------------------------------------------------------------------------------|
B|------------------------------------------------------------------------------|
G|4-4---------------------------------------------------------------------------|
D|x-x-3333333333333333-101010-999-888-------------------------------------------|
A|2-2-3333333333333333-101010-999-888-------------------------------------------|
E|----3333333333333333-101010-999-888-------------------------------------------|
Repeat First Riff, then play this
e|---------------------------------------------------------------------------|
B|---------------------------------------------------------------------------|
G|----------------8888-7\-12121212-11\---------------------------------------|
D|8888-7\-8888-7\-xxxx-x\-x-x-x-x--x-\---------------------------------------|
A|8888-7\-8888-7\-6666-5\-10101010-9-\---------------------------------------|
E|8888-7\-8888-7\------------------------------------------------------------|
It's probably not 100%, but its pretty close and I figured someone else could work with 
perfect it

| /  slide up
| \  slide down
| h  hammer-on
| p  pull-off
| ~  vibrato
| +  harmonic
| x  Mute note
==============================================================================
Suggest correction
Give kudos to tab author, rate the tab!
1 2 3 4 5
comments
print report bad tab
guest
You may want to rate the tab now too:
select rating
Wanna post a correction for this tab? Suggest correction