Oops, an error
Loading. Please wait.

False Idols Fall Tab

10,908 views 1 this week
no commentswrite comment
1 2 3 4 5
x 3
add to favorites
launch autoscroll
font size
0
reset
how to read this tab
guitar tuner
Autoscroll
slow
fast
+/-
esc
set tempo
stop
Help us to improve Ultimate-Guitar.com Take our survey!
×
Author
Difficulty
Tuning
novice
C# G# C# F# A# D#
FALSE IDOLS FALL
COMEBACK KID
WAKE THE DEAD

Tabbed by: kryptonite22
Tuning: Drop Db (Db Ab Db Gb Bb eb)
Notes: I tried to get both guitar parts but the lead is so loud in this song it's 
to find the rythym, which im sure is there. mostly the two guitars play similar things though. 
a start anyway, seems as noone else had tried it yet.

Long intro followed by drums kicking in.
(pick slide, then:)
eb|------------------------------|
Bb|------------------------------|
Gb|--44>---444>---555>---222>----|
Db|--22>---222>---555>---222>----|
Ab|--22>---222>---333>---000>----|
Db|--22>---222>------------------| x2

im not sure if theres a subtle rythym for this bit, because the lead is so prominent, 
if there is i think these chords work (it might just be the bassline)
eb|------------------------------------------|
Bb|------------------------------------------|
Gb|--55555555------------99999999--77777777--|
Db|--55555555--00000000--99999999--77777777--|
Ab|--33333333--00000000--77777777--55555555--|
Db|------------00000000----------------------|

"your time is up"
eb|----------------------------------------|
Bb|----------------------------------------|
Gb|--12121212\11111111/12121212\11111111---|
Db|--x-x-x-x-\x-x-x-x-/x-x-x-x-\x-x-x-x----|
Ab|--10101010\9-9-9-9-/10101010\9-9-9-9----|
Db|----------------------------------------|

"going over every false thing you say"
eb|----------------------------------------|
Bb|----------------------------------------|
Gb|--16161616\12121212\7-7-7-7/16161616----|
Db|--x-x-x-x-\x-x-x-x-\x-x-x-x/x-x-x-x-----|
Ab|--14141414\10101010\5-5-5-5/14141414----|
Db|----------------------------------------|

"wish it could be different"
eb|----------------------------------------|
Bb|----------------------------------------|
Gb|--11111111/12121212\11111111\7-7-7-7----|
Db|--x-x-x-x-/x-x-x-x-\x-x-x-x-\x-x-x-x----|
Ab|--9-9-9-9-/10101010\9-9-9-9-\5-5-5-5----|
Db|----------------------------------------|

"tearing down our idols"
eb|----------------------------------------|
Bb|----------------------------------------|
Gb|--16161616\14141414\12121212\11111111---|
Db|--x-x-x-x-\x-x-x-x-\x-x-x-x-\x-x-x-x----|
Ab|--14141414\12121212\10101010\9-9-9-9----|
Db|----------------------------------------|


eb|----------------------------------------|
Bb|----------------------------------------|
Gb|--12121212\11111111/12121212\11111111---|
Db|--x-x-x-x-\x-x-x-x-/x-x-x-x-\x-x-x-x----|
Ab|--10101010\9-9-9-9-/10101010\9-9-9-9----|
Db|----------------------------------------|

"all my heroes are dead" part
eb|-------------------------------------------------------------------|
Bb|-------------------------------------------------------------------|
Gb|--9-9-9\-------------9-9-9\-------------9-9-555555555-5555555\444--|
Db|--9-9-9\-------------9-9-9\-------------9-9-555555555-xxxxxxx\xxx--|
Ab|--7-7-7\--222222222--7-7-7\--222222222--7-7-333333333-3333333\222--|
Db|----------222222222----------222222222-----------------------------| x2
             .........          .........

"were we too blind to see..."
eb|---------------------------------------|
Bb|---------------------------------------|
Gb|--11111111/1212121212121212\11111111---|
Db|--x-x-x-x-/x-x-x-x-x-x-x-x-\x-x-x-x----|
Ab|--9-9-9-9-/1010101010101010\9-9-9-9----|
Db|---------------------------------------|

"can't help but feel..."
eb|----------------------------------------|
Bb|----------------------------------------|
Gb|--16161616\12121212\7-7-7-7/16161616----|
Db|--x-x-x-x-\x-x-x-x-\x-x-x-x/x-x-x-x-----|
Ab|--14141414\10101010\5-5-5-5/14141414----|
Db|----------------------------------------|

eb|----------------------------------------|
Bb|----------------------------------------|
Gb|--11111111/12121212\11111111\7-7-7-7----|
Db|--x-x-x-x-/x-x-x-x-\x-x-x-x-\x-x-x-x----|
Ab|--9-9-9-9-/10101010\9-9-9-9-\5-5-5-5----|
Db|----------------------------------------|

"they build you up to watch you fall" part
guitar one
eb|----------------------------------------|
Bb|----------------------------------------|
Gb|----------------------------------------|
Db|--99-999-977-777-71010-101010-1099-999--|
Ab|--77-777-777-777-7-7-7-7-7-7--7-77-777--|
Db|----------------------------------------|

eb|----------------------------------------|
Bb|----------------------------------------|
Gb|----------------------------------------|
Db|--99-999-977-777-71010-101010-1099-999--|
Ab|--55-555-555-555-55-5--5-5-5--5-55-555--|
Db|----------------------------------------|

guitar two comes in with this at the end of each of those lines

eb|-----|
Bb|-----|
Gb|--9--|
Db|--9--|
Ab|--7--|
Db|-----|
     .

then the "can't you see?" part
guitar one
eb|--------------------------------------------------------------|
Bb|--------------------------------------------------------------|
Gb|--12121212\11111111\9-9-9-9\7-7-7-7/9-9-9-9/11111111\9-9-9-9--|
Db|--x-x-x-x-\x-x-x-x-\x-x-x-x\x-x-x-x/x-x-x-x/x-x-x-x-\x-x-x-x--|
Ab|--10101010\9-9-9-9-\7-7-7-7\5-5-5-5/7-7-7-7/9-9-9-9-\7-7-7-7--|
Db|--------------------------------------------------------------|

guitar two
eb|-------------------------------------------------------------|
Bb|-------------------------------------------------------------|
Gb|--5555555555555555555555555555-------------------------------|
Db|--5555555555555555555555555555--222222222222222222222--2-2>--|
Ab|--3333333333333333333333333333--222222222222222222222--2-2>--|
Db|--------------------------------222222222222000000000--2-2>--|

"when did we lose control?"
guitar one (during this bit guitar two adds the same chord and lets it ring out - listen 
the track, you cant miss it)
eb|--------------------------------|
Bb|--------------------------------|
Gb|--------------------------------|
Db|--2222222222222222222222222222--|
Ab|--2222222222222222222222222222--|
Db|--2222222222222222222222222222--|x3
     ............................

"...forever!"
eb|---------------------------------------------------|
Bb|---------------------------------------------------|
Gb|-------------------------------55555555--22222222--|
Db|--5-5--5/7\22222222--55555555--55555555--22222222--|
Ab|--5-5--5/7\22222222--55555555--33333333--00000000--|
Db|--5-5--5/7\22222222--55555555----------------------|

keep those last 4 chords going until the end of the song, whilst the lead does this over 
top, coming in on the 3rd time through those chords:

eb|------------------------------------|
Bb|------------------------------------|
Gb|--555\44/99999999/11/12\9/17171717--|
Db|--xxx\xx/xxxxxxxx/x-/x-\x/x-x-x-x---|
Ab|--333\22/77777777/9-/10\7/15151515--|
Db|------------------------------------|

then just plays this til the end
eb|-----------------|
Bb|-----------------|
Gb|--12\9/17171717--|
Db|--x-\x/x-x-x-x---|
Ab|--10\7/15151515--|
Db|-----------------|

then finally (both guitars i think)
eb|---------------|
Bb|---------------|
Gb|---------------|
Db|--2-2-2-2-22>--|
Ab|--2-2-2-2-22>--|
Db|--2-2-2-2-22>--|
Suggest correction
Give kudos to tab author, rate the tab!
1 2 3 4 5
comments
print report bad tab
guest
You may want to rate the tab now too:
select rating
Wanna post a correction for this tab? Suggest correction