Oops, an error
Loading. Please wait.

Hailing On Me Tab

1,454 views 6 this week
2 commentsread comments
1 2 3 4 5
worth learning
x 3
add to favorites
launch autoscroll
font size
0
reset
how to read this tab
guitar tuner
Tab Pro tools
  • play this tab
  • loop segment
  • change instrument
  • show fretboard
  • metronome
×
Best way to learn
"Hailing On Me"
Autoscroll
slow
fast
+/-
esc
set tempo
stop
Contributor
Hailing On Me- Comeback Kid
from the album Broadcasting

dropped D tuning
EBGDAD

GTR.1

E|---------------|
B|---------------|
G|---------------|
D|---------------| x3
A|---5^5^5^5^5^5-|
D|-0~------------|

E|------------------------|
B|------------------------|
G|-10-10-10-10-10/9-9-9/7-|
D|--x--x--x--x--x/x-x-x/x-|
A|--8--8--8--8--8/7-7-7/5-|
D|------------------------|

E|-------------------------------|
B|-------------------------------|
G|-12-12-12-12-12-14-14-14-14-14-|
D|--x--x--x--x--x--x--x--x--x--x-| x2
A|-10-10-10-10-10-12-12-12-12-12-|
D|-------------------------------|

E|------------------------|
B|------------------------|
G|-10-10-10-10-10/9-9-9/7-|
D|--x--x--x--x--x/x-x-x/x-|
A|--8--8--8--8--8/7-7-7/5-|
D|------------------------|

E|-------------------------------|
B|-------------------------------|
G|-12-12-12-12-12-14-14-14-14-14-|
D|--x--x--x--x--x--x--x--x--x--x-| 
A|-10-10-10-10-10-12-12-12-12-12-|
D|-------------------------------|

*hard to hear this part on left guitar due to cymbals and vocals
covering it up but this is what i play

E|-----------------------------------------------------------|
B|-3333333355555666--8-8-8-8-8-8-8-8-10-10-10-10-10-10-10-10-|
G|-7777777777777777-1111111111111111-13-13-13-13-13-13-13-13-|
D|-----------------------------------------------------------|
A|-----------------------------------------------------------|
D|-----------------------------------------------------------|

E|------------------------------------------|
B|--8-8-8-8-8-8-8-8-10-10-10-10-10-10-10-10-|
G|-1111111111111111-13-13-13-13-13-13-13-13-|
D|------------------------------------------|
A|------------------------------------------|
D|------------------------------------------|

E|------------------------|
B|------------------------|
G|-10-10-10-10-10/9-9-9/7-|
D|-10-10-10-10-10/9-9-9/7-|
A|--8--8--8--8--8/7-7-7/5-|
D|------------------------|

E|-------------------------------|
B|-------------------------------|
G|-12-12-12-12-12-14-14-14-14-14-|
D|--x--x--x--x--x--x--x--x--x--x-| 
A|-10-10-10-10-10-12-12-12-12-12-|
D|-------------------------------|

E|------------------------------------|
B|------------------------------------|
G|-7------777------7------777------10~|
D|-7-0000-777-0000-7-0000-777-0000----|
A|-5-0000-555-0000-5-0000-555-0000----|
D|---0000-----0000---0000-----0000----|
PM   ....     ....   ....     ....

E|----------------|
B|----------------|
G|-----77-----777-|
D|-000-77-000-777-|
A|-000-55-000-555-|
D|-000----000-----|
PM ...    ...

E|----------------------------|
B|----------------------------|
G|-7------777------7------777-|
D|-7-0000-777-0000-7-0000-777-|
A|-5-0000-555-0000-5-0000-555-|
D|---0000-----0000---0000-----|

E|----------------------------|
B|----------------------------|
G|----6----666----------------|
D|-00-6-00-666-2-2222-555-333-|
A|-00-4-00-444-2-2222-555-333-|
D|-00---00-----2-2222-555-333-|
PM ..   ..       ....

E|----------------------------|
B|----------------------------|
G|-7------777------7------777-|
D|-7-0000-777-0000-7-0000-777-|
A|-5-0000-555-0000-5-0000-555-|
D|---0000-----0000---0000-----|

E|------------------------------|
B|------------------------------|
G|----6----666------------------|
D|-00-6-00-666-2-2222-555-333-2~|
A|-00-4-00-444-2-2222-555-333-2~|
D|-00---00-----2-2222-555-333-2~|
PM ..   ..       ....

E|-------|
B|-6~----|
G|-------|
D|----1~-|
A|----1~-|
D|----1~-|

E|-----------------------------------|
B|-----------------------------------|
G|-----------------------------------|
D|-0~-000000-000000-000000-000-0-555-|
A|-0~-000000-000000-000000-000-0-555-|
D|-0~-000000-000000-000000-000-0-555-|
PM    ...... ...... ...... ...

E|-------------------|
B|-------------------|
G|-------------------| 
D|-00-00-00-00-00-55-|x4
A|-00-00-00-00-00-55-|
D|-00-00-00-00-00-55-|

E|------------------------------------------|
B|------------------------------------------|
G|-10-10-10-10-10-10-10-10-99999999-9999999-|
D|--x--x--x--x--x--x--x--x-xxxxxxxx-xxxxxxx-|
A|--8--8--8--8--8--8--8--8-77777777-7777777-|
D|------------------------------------------|

E|----------------------------------------|
B|----------------------------------------|
G|-10-10-10-10-10-10-10-10----------------|
D|--x--x--x--x--x--x--x--x-88888888-10----|
A|--8--8--8--8--8--8--8--8-88888888-10x8--|
D|-------------------------88888888-10 ---|

E|--------------------------------------------|
B|--------------------------------------------|
G|-77777777777777-10-----5-----44-44-5----6---|
D|-77777777777777--x-x16-5-x16-55-55-5x16-6x8-|
A|-55555555555555--8-----3-----33-22-3----4---|
D|--------------------------------------------|

E|-------------------|
B|-------------------|
G|-8\777777777777777-|x3
D|-8\777777777777777-|
A|-6\555555555555555-|
D|-------------------|

E|-----------------------------------|
B|-----------------------------------|
G|-8\7777777-10-10-10-10-12-12-12-12-|
D|-8\7777777--x--x--x--x--x--x--x--x-|
A|-6\5555555--8--8--8--8-10-10-10-10-|
D|-----------------------------------|

E|------------------------------------|
B|------------------------------------|
G|-77777777-2222-17-17-17-19----17----|
D|-77777777-2222--x--x--x--x-x8--x-x6-|
A|-55555555-0000-15-15-15-17----15----|
D|------------------------------------|

E|---------------|
B|-------------6-|
G|-2-33333-2H3---|
D|---------------|
A|---------------|
D|---------------|

E|-------------------------------------------------|
B|-11-11-11-11-11-11-13-13-13-13-13-13-13/15/17/18-|
G|-14-14-14-14-14-14-16-16-16-16-16-16-16/18/20/21-|
D|-------------------------------------------------|
A|-------------------------------------------------|
D|-------------------------------------------------|

-------------------------------------------------------------
GTR.2

E|------------------------------|
B|------------------------------|
G|-------10-10-10-10-10-10-99-5-|
D|-0-0-0--x--x--x--x--x--x-xx-x-|
A|-0-0-0--8--8--8--8--8--8-77-3-|
D|-0-0-0------------------------|

E|------------------------------------|
B|------------------------------------|
G|--------------------7----14----3----|
D|-8-----5----33333-0-x x8--x x8-3 x8-|
A|-8 x16-5 x9-33333-0-5----12----1----|
D|-8-----5----33333-0-----------------|

E|----------------|
B|----------------|
G|----------------|
D|-55555555-33333-|
A|-55555555-33333-|
D|-55555555-33333-|

E|------------------------------------|
B|------------------------------------|
G|-7------777------7------777------10~|
D|-7-0000-777-0000-7-0000-777-0000----|
A|-5-0000-555-0000-5-0000-555-0000----|
D|---0000-----0000---0000-----0000----|
PM   ....     ....   ....     ....

E|----------------------------|
B|----------------------------|
G|-7------777------7------777-|
D|-7-0000-777-0000-7-0000-777-|
A|-5-0000-555-0000-5-0000-555-|
D|---0000-----0000---0000-----|

E|----------------------------|
B|----------------------------|
G|----9----999----------------|
D|-00-9-00-999-2-2222-555-333-|
A|-00-7-00-777-2-2222-555-333-|
D|-00---00-----2-2222-555-333-|
PM ..   ..       ....

E|----------------------------|
B|----------------------------|
G|-7------777------7------777-|
D|-7-0000-777-0000-7-0000-777-|
A|-5-0000-555-0000-5-0000-555-|
D|---0000-----0000---0000-----|

E|------------------------------|
B|------------------------------|
G|----9----999------------------|
D|-00-9-00-999-2-2222-555-333-2~|
A|-00-7-00-777-2-2222-555-333-2~|
D|-00---00-----2-2222-555-333-2~|
PM ..   ..       ....

E|-----------------------------------|
B|-----------------------------------|
G|-----------------------------------|
D|-0~-000000-000000-000000-000-0-555-|
A|-0~-000000-000000-000000-000-0-555-|
D|-0~-000000-000000-000000-000-0-555-|
PM    ...... ...... ...... ...

E|-------------------|
B|-------------------|
G|-------------------| 
D|-00-00-00-00-00-55-|x4
A|-00-00-00-00-00-55-|
D|-00-00-00-00-00-55-|

E|-------|
B|-6~----|
G|-------|
D|----1~-|
A|----1~-|
D|----1~-|

E|------------------------------------------------|
B|------------------------------------------------|
G|-9999-10----12----14----15----17----19----21----|
D|-xxxx--x-x8--x-x5--x-x5--x-x8--x-x8--x-x8--x-x8-|
A|-7777--8----10----12----13----15----17----19----|
D|------------------------------------------------|

E|-------------
B|-18----20----
G|--x-x8--x-x8-
D|-15----17----
A|-------------
D|-------------

E|-------------------------------------------------------|
B|--7-----8----10----11----13----15----17----18----20----|
G|-10-x8-11-x4-13-x4-14-x8-16-x8-18-x8-20-x8-21-x8-22-x8-|
D|-------------------------------------------------------|
A|-------------------------------------------------------|
D|-------------------------------------------------------|


E|-------------------------------------------------------|
B|-------------------------------------------------------|
G|-------------------------------------------------------|
D|-0000-0000-0-555555555-33333-8----12----7----5----7----|
A|-0000-0000-0-555555555-33333-8-x8-12-x8-7-x8-5-x8-7-x8-|
D|-0000-0000-0-555555555-33333-8----12----7----5----7----|

E|------------|
B|-6-3--------|
G|-----3------|
D|-------3----|
A|----------1-|
D|------------|

comments
We did not receive enough feedback on this tab! Please rate:
print report bad tab
1 2 3 4 5
2 comments total.
0 reply
For_The_Horder wrote on April 6 2008, 05:40 am

first of all the tuning is wrong, comeback kid play in drop C# (C#,G#,C#.F#,A#,D#) and send of all some of the riffs are wrong

0 reply
For_The_Horder wrote on April 6 2008, 05:41 am

second*

I want to post or [tab]
guest
You may want to rate the tab now too:
select rating
Please do not post tabs as comments. Select "correction" instead!