Oops, an error
Loading. Please wait.

Talk Is Cheap Bass Tab

version 1
version 1

Whole song

Interactive

4,518 views 3 this week
3 commentsread comments
1 2 3 4 5
please rate
add to favorites
launch autoscroll
font size
0
reset
guitar tuner
Autoscroll
slow
fast
+/-
esc
set tempo
stop
Help us to improve Ultimate-Guitar.com Take our survey!
×
Band: Comeback Kid
Song: Talk Is Cheap
Album: Wake The Dead
Drop C# Tuning: GDAC#


0:07
G |----------------------------------------------------------------------|
D |----------------------------------------------------------------------|
A |-------------------33-3-3-333-3-3-3-------------------00-0-0-0--------|
C#|00-0-0-0-65-0-34-0-----------------00-0-0-0-65-0-34-0----------6-6-6--|x2


0:25   "Your talk is cheap"
G |-----------------------------------------------------|
D |-----------------------------------------------------|
A |-----------------------------------------------------|
C#|0~-------65-0-34-00-0-0-0-00-0-0-0-00-0-0-0-6--0--3--|

G |----------------------------------------------------------------------|
D |----------------------------------------------------------------------|
A |-------------------33-3-3-333-3-3-3-------------------00-0-0-0--------|
C#|00-0-0-0-65-0-34-0-----------------00-0-0-0-65-0-34-0----------6-6-6--|


0:43   "Dive - Sink - Drown"
G |-----------------------------------------------------------------|
D |-----------------------------------------------------------------|
A |44-4-4-444-4-5-22-2-2-222-2-2-2-44-4-4-444-4-5-00-0-0-0----------|
C#|-------------------------------------------------------66-6-6-6--|


0:52   "your talk is cheap"
G |-----------------------------------------------------|
D |-----------------------------------------------------|
A |-----------------------------------------------------|
C#|0~-------65-0-34-00-0-0-0-00-0-0-0-00-0-0-0-6--0--3--|


1:09
G |----------|
D |----------|
A |----------|
C#|6-10-6-0--|


1:13
G |----------------------|
D |----------------------|
A |4-5-x-----------------|
C#|------6-x-x-10-7-4-0--|


1:17
G |-------------------------------------------------------------------|
D |-------------------------------------------------------------------|
A |--------------------------------4-5-x------------------------------|
C#|0-0-0-3-3-0-0-6-6-0-0-3-3-0-0-0-------6-x-x-10-7-4-0-x-x-x-6-10-6--|x4


1:45
G |--------------------------------|
D |--------------------------------|
A |--------------------------------|
C#|00-0-0-000-0-0-066-6-6-6-64-34--|
Suggest correction
Give kudos to tab author, rate the tab!
1 2 3 4 5
comments
print report bad tab
3 comments total.
0 reply
bassbizzle 71 wrote on May 27 2007, 06:26 pm

wtf? i tabbed this and i get no credit! those bastards

0 reply
seventyXseven 10 wrote on January 28 2008, 10:48 am

all note son the 2nd string except the 3's which were right should be moved up at least one fret for it to sound right.

0 reply
seventyXseven 10 wrote on May 12 2008, 03:59 pm

correction all notes EVEN the 3's should be Moved up a fret

guest
You may want to rate the tab now too:
select rating
Please do not post tabs as comments. Select "correction" instead!