Oops, an error
Loading. Please wait.

Wake The Dead Tab

version 1
version 1

Whole song

Interactive

42,474 views 57 this week
6 commentsread comments
1 2 3 4 5
accurate
x 11
add to favorites
launch autoscroll
font size
0
reset
how to read this tab
guitar tuner
Autoscroll
slow
fast
+/-
esc
set tempo
stop
Help us to improve Ultimate-Guitar.com Take our survey!
×
Difficulty
Tuning
intermediate
D A D G B E
Tabber:Christian Mican
Band:Comeback Kid
Sond:Wake The Dead
Album:Wake The Dead
Tuning:Db,Ab,Db,Gb,Bb,Eb

Intro
-|--------------------------------|
-|--------------------------------|
-|-7-7-----7-7-----9-9-----10-10--|
-|-X-X-0-0-X-X-0-0-X-X-0-0-X--X---|
-|-5-5-0-0-5-5-0-0-7-7-0-0-8--8---|
-|-----0-0-----0-0-----0-0--------|

-|----------------------------------|
-|----------------------------------|
-|-15-15-15-15-15-14--12-12--10-10--|
-|-X--X--X--X--X--X---X--X---X--X---|
-|-13-13-13-13-13-12--10-10--8--8---|
-|----------------------------------|

-|----------------------------------------|
-|----------------------------------------|
-|-15-15-15-15-15-14--12-12--14/15/14-14--|
-|-X--X--X--X--X--X---X--X---X-/X-/X--X---|
-|-13-13-13-13-13-12--10-10--12/13/12-12--|
-|----------------------------------------|
                                                                       
Verse                                                                  
-|----------------------------------------------|
-|----------------------------------------------|
-|-7777777777----------------------------101010-|
-|-XXXXXXXXXX-5555555555-8888888888-0000-x-X-X--|
-|-5555555555-5555555555-8888888888-0000-8-8-8--|
-|------------5555555555-8888888888-0000--------|

-|-----------------------------------------------|
-|-----------------------------------------------|
-|-7777777777------------------------------------|
-|-XXXXXXXXXX-5555555555-8888888888-0000-3-3-5-5-|
-|-5555555555-5555555555-8888888888-0000-3-3-5-5-|
-|------------5555555555-8888888888-0000-3-3-5-5-|

-|--------------------------------------------------|
-|--------------------------------------------------|
-|-7777799999-5555555555-8888888888-3-3-3-3-5-5-5-5-|
-|-XXXXXXXXXX-5555555555-8888888888-3-3-3-3-5-5-5-5-|
-|-5555577777-5555555555-8888888888-3-3-3-3-5-5-5-5-|
-|--------------------------------------------------|

-|-------------------------------------------------|
-|-------------------------------------------------|
-|-777XX999----------------------------------------|
-|-XXXXXXXX--5555555555-8888888888-3-3-3-3-5-5-5-5-|
-|-555XX777--5555555555-8888888888-3-3-3-3-5-5-5-5-|
-|-----------5555555555-8888888888-3-3-3-3-5-5-5-5-|

Pre-Chorus
-|--------------------------------------------------|
-|--------------------------------------------------|
-|-101010101010101010101010101010-77991010-77991010-|
-|-X-X-X-X-X-X-X-X-X-X-X-X-X-X-X--XXXXX-X--XXXXX-X--|
-|-8-8-8-8-8-8-8-8-8-8-8-8-8-8-8--55778-8--55778-8--|
-|--------------------------------------------------|

Bridge
-|-------------------------|
-|-------------------------|
-|-7---------------7-------|
-|-X-0-8-----------X-0-8-0-|
-|-5-0-8-----------5-0-8-0-|
-|---0-8-------------0-8-0-|

-|-------------------------------------------------|
-|-------------------------------------------------|
-|-7-----777-10101010101010--7---------------------|
-|-X-0-8-XXX-X-X-X-X-X-X-X---X-0-8-0--00-0000-0000-|
-|-5-0-8-555-8-8-8-8-8-8-8---5-0-8-0--00-0000-0000-|
-|---0-8-----------------------0-8-0--00-0000-0000-|
                                    PM.. .... ....
-|-------------------------------------------------|
-|-------------------------------------------------|
-|-7-----777-10101010101010--7---------------------|
-|-X-0-8-XXX-X-X-X-X-X-X-X---X-0-8-0--00-0000-0000-|
-|-5-0-8-555-8-8-8-8-8-8-8---5-0-8-0--00-0000-0000-|
-|---0-8-----------------------0-8-0--00-0000-0000-|
                                    PM.. .... ....
-|--------------------------------------------------|
-|--------------------------------------------------|
-|-7-----14141414141212121212-7---------------------|
-|-X-0-8-X-X-X-X-X-X-X-X-X-X--X-0-8-0--00-0000-0000-|
-|-5-0-8-12121212121010101010-5-0-8-0--00-0000-0000-|
-|---0-8------------------------0-8-0--00-0000-0000-|

-|----------------|
-|----------------|
-|-7--------------|
-|-X-0-8888888888-|
-|-5-0-8888888888-|
-|---0-8888888888-|

-|------------------------------------------------------------------------|
-|------------------------------------------------------------------------|
-|-7-7-7-7-7-7-7-7-7-7-7-7-7-7-7-7-10-10-10-10-10-10-10-10-14-14-14-14-14-|
-|-X-X-X-X-X-X-X-X-X-X-X-X-X-X-X-X-X--X--X--X--X--X--X--X--X--X--X--X--X--|
-|-5-5-5-5-5-5-5-5-5-5-5-5-5-5-5-5-8--8--8--8--8--8--8--8--12-12-12-12-12-|
-|------------------------------------------------------------------------|
  KEEP PALM MUTING OFF ND ON UNTIL THE LAST OCTAVE

-|---------------------------------------------|
-|---------------------------------------------|
-|-77777777777777777777------------------------|
-|-XXXXXXXXXXXXXXXXXXXX-5555555555-88888888888-|
-|-55555555555555555555-5555555555-88888888888-|
-|----------------------5555555555-88888888888-|

OUTRO
-|-----|
-|-----|
-|-7~--|
-|-X---|
-|-5~--|
-|-----|

                                                   -Christian J. Mican
Suggest correction
comments
print report bad tab
6 comments total. Showing first comments.
0 reply
BlackParade10 10 wrote on September 10 2006, 01:04 pm

pretty kick ass tab dude..keep up the good work

0 reply
BlackParade10 10 wrote on September 11 2006, 06:21 pm

theres a pickslide in there somewhere before the verse

0 reply
kryptonite22 915 wrote on March 6 2007, 05:52 pm

yep its good, and nice to see its in the right tuning

guest
You may want to rate the tab now too:
select rating
Please do not post tabs as comments. Select "correction" instead!