Oops, an error
Loading. Please wait.

Wake The Dead Bass Tab

version 2
version 2

Whole song

Interactive

6,480 views 6 this week
no commentswrite comment
1 2 3 4 5
excellent!
x 7
add to favorites
launch autoscroll
font size
0
reset
guitar tuner
Autoscroll
slow
fast
+/-
esc
set tempo
stop
Help us to improve Ultimate-Guitar.com Take our survey!
×
Author
Difficulty
Tuning
intermediate
D A D G B E
Band: Comeback Kid
Song: Wake The Dead
Album: Wake The Dead

The other tabs were in teh wrong tuning, so i fixed it

Gb|----------------------------------------------------------------------|
Db|----------------------------------------------------------------------|
Ab|5-5------5-5------3-3------5-5----------------------1-1111111111------|
Db|---0---0----00-00----0---0----00-00-5-5555555555555-------------4540--|x2

Gb|------------------------|
Db|------------------------|
Ab|------------------------|
Db|----0----0----0---------|


0:24    \"This is our city of the dead\"
Gb|---------------------------------------------|
Db|---------------------------------------------|
Ab|5555555555----------1111111111------8-8-8-8--|
Db|----------5555555555----------00000x---------|

Gb|---------------------------------------------|
Db|---------------------------------------------|
Ab|5555555555----------1111111111---------------|
Db|----------5555555555----------00000x3-3-5-5--|

Gb|------------------------------------------|
Db|------------------------------------------|
Ab|5555555555----------1111111111------------|
Db|----------5555555555----------3333355555--|

Gb|---------------------------------------|
Db|---------------------------------------|
Ab|555-555-------------1111111111---------|
Db|----------5555555555----------3333355--|

Gb|----------------------------------------|
Db|----------------------------------------|
Ab|11111111111111111111111111111117777777--|
Db|----------------------------------------|


1:09    \"You said, you said, you said\"
Gb|----------------------------------------------------------------------|
Db|----------------------------------------------------------------------|
Ab|5-5------5-5------3-3------5-5----------------------1-1111111111------|
Db|---0---0----00-00----0---0----00-00-5-5555555555555-------------4540--|

Gb|---------------------------------------------------------------------|
Db|---------------------------------------------------------------------|
Ab|5-5------5-5------3-3------5-5----------------------1-1111111111111--|
Db|---0---0----00-00----0---0----00-00-5-5555555555555------------------|


1:26   \"CominGbalive, somethinGbstirs inside
Gb|--------------------------------------------------------------------------|
Db|--------------------------------------------------------------------------|
Ab|------------111111111111555555555555333333333333------------111111111111--|
Db|555555555555------------------------------------555555555555--------------|

1:40   \"stop livinGbunder the weiGbht\"
Gb|--------------------------------|
Db|--------------------------------|
Ab|5---1~---------------5---1------|
Db|--0--------------------0---0----|

Gb|-----------------------------------------------|
Db|-----------------------------------------------|
Ab|5---1~---------------5---1---------------------|
Db|--0--------------------0---0-00--00-00--00-00--|x3

Gb|----------------------------------------------------------------------|
Db|----------------------------------------------------------------------|
Ab|5---1111111111111111555555555555555555555555555555557777777777777777--|
Db|--0-------------------------------------------------------------------|

2:29  \"we said, we said, we said\"
Gb|------------------------------------------------------|
Db|------------------------------------------------------|
Ab|55555555555555555555555555-------------1111111111111--|
Db|--------------------------5555555555555---------------|x4

Gb|-----|
Db|-----|
Ab|--5--|
Db|-----|
Suggest correction
comments
print report bad tab
guest
You may want to rate the tab now too:
select rating
Please do not post tabs as comments. Select "correction" instead!