Oops, an error
Loading. Please wait.

Wake The Dead Tab

version 3
version 3

Whole song

Interactive

6,367 views 3 this week
2 commentsread comments
1 2 3 4 5
x 4
add to favorites
launch autoscroll
font size
0
reset
how to read this tab
guitar tuner
Autoscroll
slow
fast
+/-
esc
set tempo
stop
Help us to improve Ultimate-Guitar.com Take our survey!
×
Difficulty
Tuning
intermediate
C# G# C# F# A# D#
Artist: Comeback Kid
Song: Wake the Dead


Tabbed: Emmanuel Olivo
Band: Comeback Kid
Song: Wake the Dead
Album: Wake the Dead
Tuning: Db-Ab-Db-Gb-Bb-Eb

Intro
Lead Guitar x2
-|--------------------------------|
-|--------------------------------|
-|-7-7-----7-7-----9-9-----10-10--|
-|-X-X-0-0-X-X-0-0-X-X-0-0-X--X---|
-|-5-5-0-0-5-5-0-0-7-7-0-0-8--8---|
-|-----0-0-----0-0-----0-0--------|

Rhythm Guitar
-|--------------------------------|
-|--------------------------------|
-|-7-7-----7-7-----3-3-----7--7---|
-|-X-X-0-0-X-X-0-0-X-X-0-0-X--X---|
-|-5-5-0-0-5-5-0-0-5-5-0-0-5--5---|
-|-----0-0-----0-0-----0-0--------|

2nd part
Lead Guitar x2
-|----------------------------------|
-|----------------------------------|
-|-15-15-15-15-15-14--12-12--10-10--|
-|-X--X--X--X--X--X---X--X---X--X---|
-|-13-13-13-13-13-12--10-10--8--8---|
-|----------------------------------|

-|----------------------------------------|
-|----------------------------------------|
-|-15-15-15-15-15-14--12-12--14/15/14-14--|
-|-X--X--X--X--X--X---X--X---X-/X-/X--X---|
-|-13-13-13-13-13-12--10-10--12/13/12-12--|
-|----------------------------------------|
					
Rhythm Guitar   
-|----------------------------------------|
-|----------------------------------------|
-|----------------------------------------|
-|-5-5-5-5-5-5-5-5-5--8-8-8-8-8-8-8-8-8---|
-|-5-5-5-5-5-5-5-5-5--8-8-8-8-8-8-8-8-8---|
-|-5-5-5-5-5-5-5-5-5--8-8-8-8-8-8-8-8-8---|




                                                                       
Verse      
Lead Guitar                                                            
-|----------------------------------------------|
-|----------------------------------------------|
-|-7777777777----------------------------101010-|
-|-XXXXXXXXXX-5555555555-8888888888-0000-x-X-X--|
-|-5555555555-5555555555-8888888888-0000-8-8-8--|
-|------------5555555555-8888888888-0000--------|
Rhythm Guitar
-|----------------------------------------------|
-|----------------------------------------------|
-|-777777777777777777777-----------------101010-|
-|-XXXXXXXXXXXXXXXXXXXXX-8888888888-0000-x-X-X--|
-|-555555555555555555555-8888888888-0000-8-8-8--|
-|-----------------------8888888888-0000--------|

Lead Guitar
-|-----------------------------------------------|
-|-----------------------------------------------|
-|-7777777777------------------------------------|
-|-XXXXXXXXXX-5555555555-8888888888-0000-3-3-5-5-|
-|-5555555555-5555555555-8888888888-0000-3-3-5-5-|
-|------------5555555555-8888888888-0000-3-3-5-5-|
Rhythm Guitar
-|-----------------------------------------------|
-|-----------------------------------------------|
-|-77777777777777777777--------------------------|
-|-XXXXXXXXXXXXXXXXXXXX--8888888888-0000-3-3-5-5-|
-|-55555555555555555555--8888888888-0000-3-3-5-5-|
-|-----------------------8888888888-0000-3-3-5-5-|



Lead Guitar 
“Break the silence, WAKE THE DEAD…”
-|-------------------------------------------------------------|
-|-------------------------------------------------------------|
-|-7777799999-14141414141515151515--8888888888-3-3-3-3-5-5-5-5-|
-|-XXXXXXXXXX-X-X-X-X-X-X-X-X-X-X---8888888888-3-3-3-3-5-5-5-5-|
-|-5555577777-12121212121313131313--8888888888-3-3-3-3-5-5-5-5-|
-|-------------------------------------------------------------|

Rythm Guitar
-|----------------------------------------------------|
-|----------------------------------------------------|
-|-7777777777-----------------------------------------|
-|-XXXXXXXXXX-5555555555-8888888888-3-3-3-3-5-5-5-5---|
-|-5555555555-5555555555-8888888888-3-3-3-3-5-5-5-5---|
-|------------5555555555-8888888888-3-3-3-3-5-5-5-5---|

Lead Guitar
-|-----------------------------------------------------------|
-|-----------------------------------------------------------|
-|-777XX999-14141414141515151515--8888888888-3-3-3-3-5-5-5-5-|
-|-XXXXXXXX-X-X-X-X-X-X-X-X-X-X---8888888888-3-3-3-3-5-5-5-5-|
-|-555XX777-12121212121313131313--8888888888-3-3-3-3-5-5-5-5-|
-|-----------------------------------------------------------|

Pre-Chorus
Lead Guitar
-|--------------------------------------------------|
-|--------------------------------------------------|
-|-101010101010101010101010101010-77991010-77991010-|
-|-X-X-X-X-X-X-X-X-X-X-X-X-X-X-X--XXXXX-X--XXXXX-X--|
-|-8-8-8-8-8-8-8-8-8-8-8-8-8-8-8--55778-8--55778-8--|
-|--------------------------------------------------|
Rhythm Guitar
-|----------------------------------------|
-|----------------------------------------|
-|----------------------------------------|
-|-8888888888888888888888888888-55555\7---|
-|-8888888888888888888888888888-33333\5---|
-|-8888888888888888888888888888-----------|

(Intro)Chorus
Lead Guitar x2
-|--------------------------------|
-|--------------------------------|
-|-7-7-----7-7-----9-9-----10-10--|
-|-X-X-0-0-X-X-0-0-X-X-0-0-X--X---|
-|-5-5-0-0-5-5-0-0-7-7-0-0-8--8---|
-|-----0-0-----0-0-----0-0--------|

Rhythm Guitar
-|--------------------------------|
-|--------------------------------|
-|-7-7-----7-7-----3-3-----7--7---|
-|-X-X-0-0-X-X-0-0-X-X-0-0-X--X---|
-|-5-5-0-0-5-5-0-0-5-5-0-0-5--5---|
-|-----0-0-----0-0-----0-0--------|

2nd part
Lead Guitar x2
-|----------------------------------|
-|----------------------------------|
-|-15-15-15-15-15-14--12-12--10-10--|
-|-X--X--X--X--X--X---X--X---X--X---|
-|-13-13-13-13-13-12--10-10--8--8---|
-|----------------------------------|

-|----------------------------------------|
-|----------------------------------------|
-|-15-15-15-15-15-14--12-12--14/15/14-14--|
-|-X--X--X--X--X--X---X--X---X-/X-/X--X---|
-|-13-13-13-13-13-12--10-10--12/13/12-12--|
-|----------------------------------------|
					
Rhythm Guitar   
-|----------------------------------------|
-|----------------------------------------|
-|----------------------------------------|
-|-5-5-5-5-5-5-5-5-5--8-8-8-8-8-8-8-8-8---|
-|-5-5-5-5-5-5-5-5-5--8-8-8-8-8-8-8-8-8---|
-|-5-5-5-5-5-5-5-5-5--8-8-8-8-8-8-8-8-8---|




Bridge
-|-------------------------|
-|-------------------------|
-|-7---------------7-------|
-|-X-0-8-----------X-0-8-0-|
-|-5-0-8-----------5-0-8-0-|
-|---0-8-------------0-8-0-|

-|-------------------------------------------------|
-|-------------------------------------------------|
-|-7-----777-10101010101010--7---------------------|
-|-X-0-8-XXX-X-X-X-X-X-X-X---X-0-8-0--00-0000-0000-|
-|-5-0-8-555-8-8-8-8-8-8-8---5-0-8-0--00-0000-0000-|
-|---0-8-----------------------0-8-0--00-0000-0000-|
                                    PM.. .... ....
-|-------------------------------------------------|
-|-------------------------------------------------|
-|-7-----777-10101010101010--7---------------------|
-|-X-0-8-XXX-X-X-X-X-X-X-X---X-0-8-0--00-0000-0000-|
-|-5-0-8-555-8-8-8-8-8-8-8---5-0-8-0--00-0000-0000-|
-|---0-8-----------------------0-8-0--00-0000-0000-|
                                    PM.. .... ....
-|--------------------------------------------------|
-|--------------------------------------------------|
-|-7-----14141414141212121212-7---------------------|
-|-X-0-8-X-X-X-X-X-X-X-X-X-X--X-0-8-0--00-0000-0000-|
-|-5-0-8-12121212121010101010-5-0-8-0--00-0000-0000-|
-|---0-8------------------------0-8-0--00-0000-0000-|

-|----------------|
-|----------------|
-|-7--------------|
-|-X-0-8888888888-|
-|-5-0-8888888888-|
-|---0-8888888888-|

-|---------------------------------------------------|
-|---------------------------------------------------|
-|-777777777777777710101010101010101414141414--------|
-|-XXXXXXXXXXXXXXXXXXXXXXXXXXXXXXXXXXXXXXXXXX--------|
-|-55555555555555558-8-8-8-8-8-8-8-1212121212--------|
-|---------------------------------------------------|
  KEEP PALM MUTING OFF ND ON UNTIL THE LAST OCTAVE

-|---------------------------------------------|
-|---------------------------------------------|
-|-77777777777777777777------------------------|
-|-XXXXXXXXXXXXXXXXXXXX-5555555555-88888888888-|
-|-55555555555555555555-5555555555-88888888888-|
-|----------------------5555555555-88888888888-|

OUTRO
-|-----|
-|-----|
-|-7~--|
-|-X---|
-|-5~--|
-|-----|
Suggest correction
comments
print report bad tab
2 comments total.
0 reply
Ripii 10 Aug 12, 2008 03:04 PM

ai pero ke lindo :D

0 reply
recklessnick 617 Sep 16, 2008 02:55 AM

chorus should be

Rhythm Guitar
-|--------------------------------|
-|--------------------------------|
-|-7-7-----7-7-----5-5-----7--7---|
-|-X-X-0-0-X-X-0-0-X-X-0-0-X--X---|
-|-5-5-0-0-5-5-0-0-3-3-0-0-5--5---|
-|-----0-0-----0-0-----0-0--------|

not

Rhythm Guitar
-|--------------------------------|
-|--------------------------------|
-|-7-7-----7-7-----3-3-----7--7---|
-|-X-X-0-0-X-X-0-0-X-X-0-0-X--X---|
-|-5-5-0-0-5-5-0-0-5-5-0-0-5--5---|
-|-----0-0-----0-0-----0-0--------|

but im sure its a typo

guest
You may want to rate the tab now too:
select rating
Wanna post a correction for this tab? Suggest correction