Oops, an error
Loading. Please wait.

Without A Word Bass Tab

275 views 1 this week
no commentswrite comment
1 2 3 4 5
please rate
add to favorites
launch autoscroll
font size
0
reset
guitar tuner
Tab Pro tools
  • play this tab
  • loop segment
  • change instrument
  • show fretboard
  • metronome
Autoscroll
slow
fast
+/-
esc
set tempo
stop
Contributor
intro
G------------------|
D------------------|
A-22-2-33-3-00-0---|
D----------------4-|

part1                               2X
G-------------------------------------|
D-------------------------------------|
A-22-2-22-33-3-33-22-2-33-3-00-0------|
D--------------------------------44-4-|

part2                           <1st end>< 2nd >
G-------------------------------I-------I-------|I
D-------------------------------I-------I-------|I
A-------------------------------I-22-33-I-2023--|I
D-44-4-4444-54-4-4444-54-4-4444-I-------I-------|I

repeat part1
repeat part2

G----------------------|
D----------------------|
A-3---2---0---2--------|
D--44--44--44--44-4444-|
                                       3X
G----------------------------------------|
D----------------------------------------|
A----------00000000-3---2---0---2--------|
D-44444444-----------44--44--44--44-4444-|

G-----------------------------------------------------------------|
D-----------------------------------------------------------------|
A-----------------------------------------22-2-33-3-00-0-2--------|
D-44-4-4444-44-4-4444-44-4-4444-44-4-4444--------------------4~-4-|

i think thats it.. plz correct me if you find mistakes..
  xxSID
comments
We did not receive enough feedback on this tab! Please rate:
print report bad tab
1 2 3 4 5
I want to post or [tab]
guest
You may want to rate the tab now too:
select rating
Please do not post tabs as comments. Select "correction" instead!