Oops, an error
Loading. Please wait.

Psychopath chords

1,993 views 9 this week
no commentswrite comment
1 2 3 4 5
x 6
add to favorites
×
Save as Personal and add changes to this tab that will be seen only by you. Learn more ›
×
You can save this tab as Personal to edit and correct it or add notes. All changes will be seen only by you. Learn more »
launch autoscroll
font size
0
reset
transpose
0
reset
display chords
guitar tuner
edit
Autoscroll
slow
fast
+/-
esc
set tempo
stop
Strumming
There is no strumming pattern for this song yet. and get +5 IQ
This is written strait off the ear, so the tab probably won't be 100% and I've also done it for my 
accoustic guitar, so some parts are simplyfied. I've only written down the tabs for one of the guitars,
so if you find that I've mixed the different guitar voices please tell.
All tabs, except the solo, are only showing how that specific bit is played and should not be played in
addition to the rest. I recomend that you listen properly to this beautiful song before you play it.
Good luck!


Capo 3

    G   D   G       G   Hm  C    G   D   G       G   Hm  G
e:----------------------------------------------------------:
h:----------0-------0---3---5------------0-------0---3---0--:
g:--0---2---0-------0---0---0----0---2---0-------0---0---0--:  Repeat
D:--0---0------------------------0---0----------------------:
A:----------------------2---3------------------------2------:
E:--3-------3-------3------------3-------3-------3-------3--:

Intro: | G-D-G G-Hm-C G-D-G G-Hm-G |x2

   G        D          G
Oh girl you move to the rhythm,
            G           Hm        C
oh but your head is all out of control,
G           D              G
  there's a lot of fainting people inside
                G        Hm     G
thats screaming out your bloody name.

G     D        G
  Inside of my darkest mind,
G            Hm            C 
   something trying to get out,
        G              D    G
it says pick up your knife, go to her house and leave 
G       Hm            G
 nothing to the ground

            G  D  G
Cause I’m a psychopath,
           G   Hm   C
and I’m a maiaiainiac.
          G  D  G
And I’m a psychopath,
          G    Hm   G
and I’m a maiaiainiac.


    G   D   G       G   Hm  C    G   D   G         G   Hm  G
e:-----------------------2-------------------------------------:
h:----------0p3h0----0--3h-p5------------0p3h0---0---3---0p1h0-:
g:--0---2---0-------0------------0---2---0-------0---0---0-----:
D:--0---0------------------------0---0-------------------------:
A:----------------------2---3------------------------2---------:
E:--3-------3-------3------------3-------3-------3-------3-----:


G               D     G
  When you were going home from the movies on a 
G Hm       C
  saturday night.
        G             D            G
Ah you didn’t see me laying in the bushes, 
G              Hm            G
following your every step home.


    G   D   G       G   Hm  C    G   D   G         G   Hm  G
e:-------------------------------------------------------------:
h:----------0p3h0---0---3---5------------0p3h0---0---3---0-----:
g:--0---2---0-------0---0---0----0---2---0-------0---0---0-----:
D:--0---0------------------------0---0-------------------------:
A:----------------------2---3------------------------2---------:
E:--3-------3-------3------------3-------3-------3-------3-----:


      G              D            G
Cause you were going home to your house,
          G           Hm           C
I saw you got in to bed feeling safe.
     G                  D                G
Oh I know you heard me sneak into your window,
         G      Hm        G
I put a pillow over your face.


    G   D   G       G    Hm      C    G   D   G   G   Hm  G
e:---------------------------3---------------------------------:
h:----------0p3h0---0---3h0p3---5------------0---0---3---0-----:
g:--0---2---0-------0-----------0----0---2---0---0---0---0-----:
D:--0---0----------------------------0---0---------------------:
A:------------------------------3--------------------2---------:
E:--3-------3-------3----------------3-------3---3-------3-----:


           G   D  G
Cause I’m a psychopath,
          G   Hm   C
and I’m a maiaiainiac.
         G   D  G
And I’m a psychopath,
         G   Hm   G
and I’m a maiainiac.


    G   D   G       G   Hm  C    G   D   G       G   Hm  G
e:----------------------------------------------------------:
h:----------0-------0---3---5------------0-------0---3---0--:
g:--0---2---0-------0---0---0----0---2---0-------0---0---0--:  Repeat
D:--0---0------------------------0---0----------------------:
A:----------------------2---3------------------------2------:
E:--3-------3-------3------------3-------3-------3-------3--:


G         D      G
 I have a little box in my cellar, 
  G         Hm   C
just about your size.
G           D           G
 And if you wanna come voluntary you’ll 
G             Hm        G
 spare yourself form my violent side.

G D G       G Hm C       G   D   G        G  Hm G
ohohoho say ohohohoh say ohohohheheyh say no no no

G              D           G*
  No one would know if I’m a,
G              Hm          C* 
  no one would know if I’m a,
G              D           G* 
  no one would know if I’m a,
G                        Em             <-- STRUM
  no one would know if I’m just like you
 G D     G          G  Hm   C
A  psychopath, a maiaiaiainiac.
       G   D  G            G   Hm  G
I am a  psychopath, I am a maaainiac.


solo (with capo3)

e:--3p2h3p2--------------------------3-----|
h:----------3------------------3---3---3h5-|
g:-------------2s4---2p0---2s4---4---------|
D:-----------------------------------------|
A:-----------------------------------------|
E:—----------------------------------------|

e:-----------------------------------------------|
h:----5-5--5s3--3-3-0----------------------------|
g:----4-4--4s2--2-2-0--2--0--2s4h5p4p2h0--0------|
D:---------------------2--0--0------------2------|
A:-----------------------------------------------|
E:-----------------------------------------------|

e:--------------7-7h8p7----8s10-8h7-------------|
h:------1h3-3-----------8------------8----------|
g:-2s4------------------------------------------|
D:----------------------------------------------|
A:----------------------------------------------|
E:----------------------------------------------|

e:-------------------------------------------|
h:----5-5--5s3--3-3-0------------------------|
g:----4-4--4s2--2-2-0--2--0--2s4h5p4p0--0----|
D:---------------------2--0--0----------2----|
A:-------------------------------------------|
E:-------------------------------------------|

(Whisper)

    G   D   G       G   Hm  C    G   D   G       G   Hm  G
e:----------------------------------------------------------:
h:----------0-------0---3---5------------0-------0---3---0--:
g:--0---2---0-------0---0---0----0---2---0-------0---0---0--:  Repeat
D:--0---0------------------------0---0----------------------:
A:----------------------2---3------------------------2------:
E:--3-------3-------3------------3-------3-------3-------3--:


           G  D G    G  Hm  C
oh youre a psycopath
           G  D G    G  Hm  G
oh youre a psycopath
           G  D G    G  Hm  C
oh youre a psycopath
           G  D G    G  Hm  Gmaj7(Strum and hold)
I said…

            
            
Suggest correction
Creating personal tab
Creating personal tab
You can edit any tab online and save it as your Personal.

You can edit, replace or remove any tab part or add personal notes – all changes will be seen only by you.

Personal tabs can be accessed anytime from any device, even offline.
Learn more »
comments
print report bad tab
guest
You may want to rate the tab now too:
select rating
Wanna post a correction for this tab? Suggest correction