Oops, an error
Loading. Please wait.

When Im Dead chords

499 views 6 this week
no commentswrite comment
1 2 3 4 5
1 last vote to show rating
add to favorites
×
Save as Personal and add changes to this tab that will be seen only by you. Learn more ›
×
You can save this tab as Personal to edit and correct it or add notes. All changes will be seen only by you. Learn more »
launch autoscroll
font size
0
reset
transpose
0
reset
simplify chords
display chords
guitar tuner
edit
Autoscroll
slow
fast
+/-
esc
set tempo
stop
Author
Difficulty
Strumming
There is no strumming pattern for this song yet. and get +5 IQ
Artist:       Comet Kid
Song:         When I'm Dead

Tabbed by:    Biriboy
Tuning:       Standard


[Verse 1]
    A   Bm  G   Dsus2 D
e|-----------------------------------------------------|
B|----------------5---7-----5h(6h)7-5---5h7/8-7-5------|
G|--6---7---4-------------------------7-----------7----|
D|-----------------------------------------------------|
A|----------------4---5--------------------------------|
E|--5---7---3------------------------------------------|

(Alternative)
    A   Bm  G   Dsus2 D     D 
e|----------------0---2-----0h2-0---0h2-2h3-2-0--------|
B|--2---3---------3---3-----------3-------------3------|
G|----------4-----2---2--------------------------------|
D|----------------0---0--------------------------------|
A|--0---2----------------------------------------------|
E|----------3------------------------------------------|

Can you give me a reason not to lose my mind

I've been up I've been down, I've been blind I just couldn't find

The reason for me feeling like I'm meant for a greater cause

Now I'm looking underneath the floorboards where I was born

I've been feeling like there's an answer on the other side

But as I dig down deeper I only find a place to hide



[Chorus]
      G
And I know
    A       Bm      G 
But I don't need no friends
    A       Bm      G    
And I don't need no lovers
    A     Bm
And all I know is
D
All you motherfuckers gonna scream when I'm dead



[Chorus]
      G
And I know
    A       Bm      G 
But I don't need no friends
    A       Bm      G    
And I don't need no lovers
    A     Bm
And all I know is
D
All you motherfuckers gonna scream when I'm dead



[Verse 2]

    A   Bm  G   Dsus2 D
e|-----------------------------------------------------|
B|----------------5---7-----5h(6h)7-5---5h7/8-7-5------|
G|--6---7---4-------------------------7-----------7----|
D|-----------------------------------------------------|
A|----------------4---5--------------------------------|
E|--5---7---3------------------------------------------|

(Alternative)
    A   Bm  G   Dsus2 D     D 
e|----------------0---2-----0h2-0---0h2-2h3-2-0--------|
B|--2---3---------3---3-----------3-------------3------|
G|----------4-----2---2--------------------------------|
D|----------------0---0--------------------------------|
A|--0---2----------------------------------------------|
E|----------3------------------------------------------|

I'm afraid of becoming who I was before

Just a shadow of a person not making anyone applaud

But then I feel the fire burning strong inside of me

It will burn away all of my anxiety



[Chorus]
      G
And I know
    A       Bm      G 
But I don't need no friends
    A       Bm      G    
And I don't need no lovers
    A     Bm
And all I know is
D
All you motherfuckers gonna scream when I'm dead



[Chorus]
      G
And I know
    A       Bm      G 
But I don't need no friends
    A       Bm      G    
And I don't need no lovers
    A     Bm
And all I know is
D
All you motherfuckers gonna scream when I'm dead



[Bridge]

   Dsus4  D   G  
e|--3-3--2-2--3-------2-----------|
B|--3-3--3-3--3---3-----3---------|
G|--2-2--2-2--0-----2-------------|
D|--0-0--0-0--0-------------------|
A|------------2-------------------|
E|------------3-------------------|

   Dsus4  D   A  
e|--3-3--2-2--0-------0-----------|
B|--3-3--3-3--2---3-----3---------|
G|--2-2--2-2--2-----2-------------|
D|--0-0--0-0--2-------------------|
A|------------0-------------------|
E|--------------------------------|

   Dsus4  D   G  
e|--3-3--2-2--3-------0-----------|
B|--3-3--3-3--3---3-----3---------|
G|--2-2--2-2--0-----2-------------|
D|--0-0--0-0--0-------------------|
A|------------2-------------------|
E|------------3-------------------|

   Dsus4  D   A  
e|--3-3--2-2--0---0----0----------|
B|--3-3--3-3--2-----3----3--------|
G|--2-2--2-2--2-------2----2------|
D|--0-0--0-0--2-------------------|
A|------------0-------------------|
E|--------------------------------|

   Dsus4  D   G  
e|--3-3--2-2--3------0-----0------|
B|--3-3--3-3--3---3----3-----3----|
G|--2-2--2-2--0-----2----2--------|
D|--0-0--0-0--0-------------------|
A|------------2-------------------|
E|------------3-------------------|

   Dsus4  D   A  
e|--3-3--2-2--0-----0-0---0-0-----|
B|--3-3--3-3--2---3-----3---------|
G|--2-2--2-2--2-------------------|
D|--0-0--0-0--2-------------------|
A|------------0-------------------|
E|--------------------------------|

   Dsus4  D   G  
e|--3-3--2-2--3-------0-----------|
B|--3-3--3-3--3---3-----3---------|
G|--2-2--2-2--0-----2-------------|
D|--0-0--0-0--0-------------------|
A|------------2-------------------|
E|------------3-------------------|

(Piano)
e|--------------------3-3-2-2-----|
B|--3-3---------------3--------2--|
G|--4-4---2-2---4-4---2-----------|
D|--------------------0-----------|
A|--2-2------------------------0--|
E|--------2-2---3-3---------------|


[Chorus]
D
All you motherfuckers gonna scream when I'm dead
      G
And I know
    A       Bm      G 
But I don't need no friends
    A       Bm      G    
And I don't need no lovers
    A     Bm
And all I know is
D
All you motherfuckers gonna scream when I'm dead
D
All you motherfuckers gonna scream when I'm dead







************************************

| x   Dead note
| g   Grace note
| (n) Ghost note
| h   Hammer-on
| p   Pull-off
| r   Release
| >   Accented note
| t   Tapping
| b   Bend
| br  Bend release
| pb  Pre-bend
| pbr Pre-bend release
| /   Slide up
| \   Slide down
| ~   Vibrato
| s   Slap
| P   Pop
| PM  Palm mute
| TR  Trill
| N   Tremolo

************************************
Suggest correction
Creating personal tab
Creating personal tab
You can edit any tab online and save it as your Personal.

You can edit, replace or remove any tab part or add personal notes – all changes will be seen only by you.

Personal tabs can be accessed anytime from any device, even offline.
Learn more »
Give kudos to tab author, rate the tab!
1 2 3 4 5
comments
print report bad tab
guest
You may want to rate the tab now too:
select rating
Wanna post a correction for this tab? Suggest correction