Oops, an error
Loading. Please wait.

Glamoroso Rock tab

296 views 1 this week
no commentswrite comment
1 2 3 4 5
3 more votes to show rating
add to favorites
×
Save as Personal and add changes to this tab that will be seen only by you. Learn more ›
×
You can save this tab as Personal to edit and correct it or add notes. All changes will be seen only by you. Learn more »
launch autoscroll
font size
0
reset
how to read this tab
guitar tuner
edit
Autoscroll
slow
fast
+/-
esc
set tempo
stop
Espero que les sirva esta tab... esta algo complicada.

Recomiendo que le pongan poquito overdrive :D

Intro: F junto con la batería.


1---------------------------------------------------------------
2---------------------------------------------------------------
3---------------------------------------------------------------
4-------5-------5----------5-------5--3----------5-------5------
5----------------------------------------5----------------------
6--3-3-----3-3-----3-3-3-3----3-3-----------3-3-----3-3-----3-3-

1----------------------
2----------------------
3----------------------
4--0-0--3-3--4-4--5-5--
5----------------------
6----------------------

1---------------------------------------------------------------
2---------------------------------------------------------------
3---------------------------------------------------------------
4-------5-------5----------5-------5--3----------5-------5------
5----------------------------------------5----------------------
6--3-3-----3-3-----3-3-3-3----3-3-----------3-3-----3-3-----3-3-

1----------------------
2----------------------
3--5/7/5--3-5-3--------
4---------------5-3-5--
5----------------------
6----------------------

Verso1.

        Glamoroso rock!!
        Insitandome!!
                         F  F

1------------------------1^-1|-----
2------------------------1|-1|-----
3------------------------2|-2|-----
4------5-5------5-5------3|-3|-----
5------------------------3|-3|-----
6--3-3------3-3-----3-3--1|-1v-----

Verso2.

A seguir la noche hasta el amanecer.

1-----12--------------10--------------10-----------
2--------12--------------12--------------10--------
3-/12-------12~---/12-------12~---/11-------11~----
5--------------------------------------------------
6--------------------------------------------------

1------------------------------
2------------------------------
3--12/10/12--12^--12-----------
4--------------------12-10-----
5--------------------------12--
6------------------------------

Verso1:
Nadie pregunto!!
Tal vez lo soñé!!

Verso2:
Que entre tanta gente fue que te encontré.
Fue entre tanta gente que yo te encontré.

Coro:
Sera hoy la noche, de mis noches obscuras mas.
Oh cuando tus ojos, se encuentren con mis ojos para hacer el amor.

1-----------------------------------------------------------------
2-----------------------------------------------------------------
3-5---5---5---5---7---7---7---7-----------------------------------
4---7---7---7---7---7---7---7---7-9----9----9----9--8---8---8---8-
5-----------------------------------10---10---10------9---9---9---
6-----------------------------------------------------------------

Puente:
1---------------------------------------------------------------
2---------------------------------------------------------------
3---------------------------------------------------------------
4-------5-------5----------5-------5--3----------5-------5------
5----------------------------------------5----------------------
6--3-3-----3-3-----3-3-3-3----3-3-----------3-3-----3-3-----3-3-

1----------------------
2----------------------
3----------------------
4--0-0--3-3--4-4--5-5--
5----------------------
6----------------------

Solo1:

1-----------------------------------6-6-6-6-6-6-6-6-
2-----------------------------------6-6-6-6-6-6-6-6-
3--5^-5^-5^-5-3-5-3------5^-5^-5^-5-----------------
4-------------------5-3-----------------------------
5---------------------------------------------------
6---------------------------------------------------

1---------------------------------------------------------
2---------------------------------------------------------
3--5^-5^-5^-5-3-5-3------5-3---3--------------------------
4-------------------5-3------5--5--3--3-------------------
5------------------------------------5--5--3--3-----------
6--------------------------------------------5--5--3/-----

Verso2.

A seguir la noche hasta el amanecer.

1-----12--------------10--------------10-----------
2--------12--------------12--------------10--------
3-/12-------12~---/12-------12~---/11-------11~----
5--------------------------------------------------
6--------------------------------------------------

Solo2:

1------13-15-----13-15-13-------------
2--13^-------13^----------15-13-------
3-------------------------------15-12-
4-------------------------------------
5-------------------------------------
6-------------------------------------X2

1--------------------------------13-15-------13-15----------------------------
2--------------------------13-15-------13-15----------------------------------
3-----------------------------------------------------------------------------
4-------15-17-------15-17---------------------------------------15-17-15-17^--
5-15-17-------15-17---------------------------------------15-17---------------
6---------------------------------------------------15-17---------------------

Puente:
Fue entre tanta gente que yo te encontré.


Coro:
Sera hoy la noche, de mis noches obscuras mas.
Oh cuando tus ojos, se encuentren con mis ojos para hacer el amor.

(todo es igual hasta la penúltima parte de coro)

Oh cuando tus ojos, se encuentren con mis ojos pa'...

1--------------------------------------------------------------------------
2-13---13---13---13----15---15---15---15--------------------16--16--16--16-
3----14---14---14---14----14---14---14---14--16--16--16--16---16--16--16---
4----------------------------------------------17--17--17------------------
5--------------------------------------------------------------------------
6--------------------------------------------------------------------------

...ra hacer el amor.
1--------------------------------------------------------------------------
2-13---13---13---13----15---15---15---15-----------------------------------
3----14---14---14---14----14---14---14---14--16--16--16--16-15--15--15--15-
4----------------------------------------------17--17--17-----16--16--16---
5--------------------------------------------------------------------------
6--------------------------------------------------------------------------

(terminan con...)

1---------------------------------------------------------------
2---------------------------------------------------------------
3---------------------------------------------------------------
4-------5-------5----------5-------5--3----------5-------5------
5----------------------------------------5----------------------
6--3-3-----3-3-----3-3-3-3----3-3-----------3-3-----3-3-----3-3-

                       G
1----------------------3~~---
2----------------------3~~---
3----------------------4~~---
4--0-0--3-3--4-4--5-5--5~~---
5----------------------5~~---
6----------------------3~~--- Fin.

Espero que les guste o les sirva de algo, dudas, piropos:
dragonvolvi_94@
chao chao!

            
            
Suggest correction
Creating personal tab
Creating personal tab
You can edit any tab online and save it as your Personal.

You can edit, replace or remove any tab part or add personal notes – all changes will be seen only by you.

Personal tabs can be accessed anytime from any device, even offline.
Learn more »
Give kudos to tab author, rate the tab!
1 2 3 4 5
comments
print report bad tab
guest
Wanna post a correction for this tab? Suggest correction