Oops, an error
Loading. Please wait.

Grabemos Una Porno Tab

469 views 9 this week
no commentswrite comment
1 2 3 4 5
please rate
add to favorites
launch autoscroll
font size
0
reset
how to read this tab
guitar tuner
Autoscroll
slow
fast
+/-
esc
set tempo
stop
Help us to improve Ultimate-Guitar.com Take our survey!
×
Author
Difficulty
novice
fergto78
--## Tablatura de mi versión para: Grabemos una porno de
Comisario Pantera,
por Fernando Arroyo, checa mi
cover, para mayor referencia de la tab, en youtube,
http://youtu.be/19KmJLReSUU
además, podrás bajar los backing tracks para practicar :)

Afinación estándar
LA TAB de la 2da Guitarra esta al final

Intro

Guitarra 01

  Gmaj7         Dmaj7
|-------7-------------5------|
|-----7---7---------7---7----|
|---7-------7-----6-------6--|
|-5-------------7------------|
|----------------------------|
|----------------------------|

  Gmaj7            Dmaj7
|-------7-------------------5~~~-|
|-----7---7---7--------7----7~~~-|
|---7-------7---7----6---6--6~~~-|
|-5----------------7-------------|
|--------------------------------|
|--------------------------------|

Verso 

  G                 D
|-------------------10-10----------------|
|-12-12---12-12-----10-10----------------|
|-12-12---12-12-----11-11----------------|
|-12-12---12-12-----12-12----------------|
|----------------------------5-5-6-6-7-7-|
|----------------------------------------|

  G                 D
|-------------------10-10-10-10-10--10-10-10-10-10-|
|-12--12--12--12----10-10-10-10-10--10-10-10-10-10-|
|-12--12--12--12----11-11-11-11-11--11-11-11-11-11-|
|-12--12--12--12----12-12-12-12-12--12-12-12-12-12-|
|--------------------------------------------------|
|--------------------------------------------------|

Puente al coro

  D#dim7 F#dim7 Adim7 Cdim7 D#dim7
|-2/-----5/-----8/----11/---14----|
|-1/-----4/-----7/----10/---13----|
|-2/-----5/-----8/----11/---14----|
|-1/-----4/-----7/----10/---13----|
|---------------------------------|
|---------------------------------|

Coro

  Em                 F#m
|-7-x-7~~~-----------------7-------|
|-8-x-8~~~---8-7-8-9-10------10----|
|-9-x-9~~~--------------11------11-|
|-9-x-9~~~-------------------------|
|-7-x-7~~~-------------------------|
|----------------------------------|

  F#m Fm  Em                A7
|-9---8---7---7---------7---------5-------|
|-10--9---8-----8-----8---------5---5-----|
|-11--10--9---------9---------6-------6---|
|-11--10--9-------9---------5-----------5-|
|-9---8---7-------------------------------|
|-----------------------------------------|

Verso

  G                 D
|-------------------10-10----------------|
|-12-12---12-12-----10-10----------------|
|-12-12---12-12-----11-11----------------|
|-12-12---12-12-----12-12----------------|
|----------------------------5-5-6-6-7-7-|
|----------------------------------------|

  G                  D
|--------------------10------------10--|
|-12----------12-----10------------10--|
|-12----------12-----11------------11--|
|-12----------12-----12------------12--|
|--------------------------------------|
|--------------------------------------|

Puente al coro

  D#dim7  Cdim7 Adim7 F#dim7 D#dim7
|-14/-----11/---8/----5/-----2----|
|-13/-----10/---7/----4/-----1----|
|-14/-----11/---8/----5/-----2----|
|-13/-----10/---7/----4/-----1----|
|---------------------------------|
|---------------------------------|

Coro

  Em                 F#m
|-7-x-7~~~-----------------7-------|
|-8-x-8~~~---8-7-8-9-10------10----|
|-9-x-9~~~--------------11------11-|
|-9-x-9~~~-------------------------|
|-7-x-7~~~-------------------------|
|----------------------------------|

  F#m Fm  Em                A7
|-9---8---7---7---------7---5-5---5-5--|
|-10--9---8-----8-----8-----5-5---5-5--|
|-11--10--9---------9-------6-6---6-6--|
|-11--10--9-------9---------5-5---5-5--|
|-9---8---7-----------------7-7---7-7--|
|---------------------------5-5---5-5--|

Puente a la sección media
 
  D         F#m
|-----------9--x-9~~~~--|
|-7-x-7~~~~-10-x-10~~~--|
|-7-x-7~~~~-11-x-11~~~--|
|-7-x-7~~~~-11-x-11~~~--|
|-5-x-5~~~~-9--x-9~~~~--|
|-----------------------|

|--------------------------|
|---3---3----------3---3---|
|-3---3---3------3---3---3-|
|--------------------------|
|--------------------------|
|--------------------------|

Sección media

  Gm7
|-3h5-5--3--3h5-3--3h5-5--5-5-|
|-3---3--3--3---3--3---3--3-3-|
|-3---3--3--3---3--3---3--3-3-|
|-3---3--3--3---3--3---3--3-3-|
|-----------------------------|
|-----------------------------|

  Fmaj7
|-1h3-3--1--1h3-1--1h3-3--3-3-|
|-1---1--1--1---1--1---1--1-1-|
|-2---2--2--2---2--2---2--2-2-|
|-2---2--2--2---2--2---2--2-2-|
|-----------------------------|
|-----------------------------|

Gm7
|-3h5-5--3--3h5-3--3h5-5--5-5-|
|-3---3--3--3---3--3---3--3-3-|
|-3---3--3--3---3--3---3--3-3-|
|-3---3--3--3---3--3---3--3-3-|
|-----------------------------|
|-----------------------------|

  Fmaj7
|-1h3-3--1--1h3-1--1h3-3--3-3-|
|-1---1--1--1---1--1---1--1-1-|
|-2---2--2--2---2--2---2--2-2-|
|-2---2--2--2---2--2---2--2-2-|
|-----------------------------|
|-----------------------------|

Continuación sección media 

  A#   Dm7  Gm        D
|-1~~~-1~~~-3~~~------2~~~-------------5~~~~~|
|-3~~~-1~~~-3~~~------3~~~------3-5-5/7~~~~~~|
|-3~~~-2~~~-3~~~------2~~~-------------------|
|--------------------------------------------|
|--------------------------------------------|
|--------------------------------------------|

Verso 

  G                 D
|-------------------10-10----------------|
|-12-12---12-12-----10-10----------------|
|-12-12---12-12-----11-11----------------|
|-12-12---12-12-----12-12----------------|
|----------------------------5-5-6-6-7-7-|
|----------------------------------------|

  G                  D
|--------------------10-10-10-10-10--------10-10-|
|-12--12--12--12-----10-10-10-10-10--------10-10-|
|-12--12--12--12-----11-11-11-11-11--------11-11-|
|-12--12--12--12-----12-12-12-12-12--------12-12-|
|------------------------------------------------|
|------------------------------------------------|

Puente al coro

  D#dim7 F#dim7 Adim7 Cdim7 Adim7
|-2/-----5/-----8/----11/---8----|
|-1/-----4/-----7/----10/---7----|
|-2/-----5/-----8/----11/---8----|
|-1/-----4/-----7/----10/---7----|
|--------------------------------|
|--------------------------------|

  Em

|-7-----7-----7-----7-----7-------|
|---8-----8-----8-----8-----8---8-|
|-----9-----9-----9-----9-----9---|
|---------------------------------|
|---------------------------------|
|---------------------------------|

  F#m
|-9-------9-------9-------9-------9----------|
|---10------10------10------10------10----10-|
|------11------11------11------11------11----|
|--------------------------------------------|
|--------------------------------------------|
|--------------------------------------------|

  Em
|-12-------12-------12-------12-------12----------|
|----12-------12-------12-------12-------12----12-|
|-------12-------12-------12-------12-------12----|
|-------------------------------------------------|
|-------------------------------------------------|
|-------------------------------------------------|

  A7
|------------15----17----|
|-----14--------14-------|
|-14------14-------------|
|------------------------|
|------------------------|
|------------------------|

Outro

  D    Gm7    F#m7     Em7
|------10-10--9--9-----7~~~~~|
|-7-7--11-11--10-10----8~~~~~|
|-7-7--10-10--9--9-----7~~~~~|
|-7-7--12-12--11-11----9~~~~~|
|-5-5--10-10--9--9-----7~~~~~|
|----------------------------|

  A7
|-------5-------|
|-----5---5-----|
|---6-------6---|
|-5-----------5-|
|---------------|
|---------------|
  D      A6
|--------12~~~~~~|
|-7-7----10~~~~~~|
|-7-7----11~~~~~~|
|-7-7----11~~~~~~|
|-5-5------------|
|----------------|
-------------------------------------------------

Guitarra 02 con wah

  G6      D
|-12~~~~----------|
|-12~~~~--10~~~~--|
|-12~~~~--11~~~~--|
|-12~~~~--12~~~~--|
|-10~~~~--12~~~~--|
|-----------------|

  G6              D
|-12~~~~--14~~~-----------|
|-12~~~~----------10~~~~--|
|-12~~~~----------11~~~~--|
|-12~~~~----------12~~~~--|
|-10~~~~----------12~~~~--|
|-------------------------|

Verso

  G              
|-12-12-12-12-12-----12-12-12-12-12--|
|-12-12-12-12-12-----12-12-12-12-12--|
|-12-12-12-12-12-----12-12-12-12-12--|
|------------------------------------|
|------------------------------------|
|------------------------------------|

  D
|---------------------------------------------|
|-10-10-10-10-10--------------10--------------|
|-11-11-11-11-11--------------11--2-2-3-3-4-4-|
|-12-12-12-12-12--------------12--------------|
|-12-12-12-12-12--------------12--------------|
|---------------------------------------------|

  G              
|-12---12---12-12-12---|
|-12---12---12-12-12---|
|-12---12---12-12-12---|
|----------------------|
|----------------------|
|----------------------|

  D
|-----------------------|
|-10-10--------10-10----|
|-11-11--------11-11----|
|-12-12--------12-12----|
|-12-12--------12-12----|
|-----------------------|

Puente  al coro

  D#dim7
|-2----------|
|-1----------|
|-2----------|
|-1----------|
|------------|
|------------|

Coro

  Em  F#m
|-7---9-----|
|-8---10----|
|-9---11----|
|-9---11----|
|-7---9-----|
|-----------|

  F#m Fm  Em        A7
|-9---8---7---------5------|
|-10--9---8---------5------|
|-11--10--9---------6------|
|-11--10--9---------5------|
|-9---8---7---------7------|
|-------------------5------|

Verso

  G              
|-12-12-12-12-12-----12-12-12-12-12--|
|-12-12-12-12-12-----12-12-12-12-12--|
|-12-12-12-12-12-----12-12-12-12-12--|
|------------------------------------|
|------------------------------------|
|------------------------------------|

  D
|---------------------------------------------|
|-10-10-10-10-10--------------10--------------|
|-11-11-11-11-11--------------11--2-2-3-3-4-4-|
|-12-12-12-12-12--------------12--------------|
|-12-12-12-12-12--------------12--------------|
|---------------------------------------------|

  G              
|-12-12--12----12-12--12-|
|-12-12--12----12-12--12-|
|-12-12--12----12-12--12-|
|------------------------|
|------------------------|
|------------------------|

  D
|-----------------------|
|-10-10--10------10-10~~|
|-11-11--11------11-11~~|
|-12-12--12------12-12~~|
|-12-12--12------12-12~~|
|-----------------------|

Puente  al coro

  D#dim7
|-2----------|
|-1----------|
|-2----------|
|-1----------|
|------------|
|------------|

Coro

  Em  F#m
|-7---9-----|
|-8---10----|
|-9---11----|
|-9---11----|
|-7---9-----|
|-----------|

  F#m Fm  Em        A7
|-9---8---7---------5-5---5-5-|
|-10--9---8---------5-5---5-5-|
|-11--10--9---------6-6---6-6-|
|-11--10--9---------5-5---5-5-|
|-9---8---7---------7-7---7-7-|
|-------------------5-5---5-5-|

Puente a la sección media

   D             F#m    
|--3~~~~---------------------------|
|--2~~~~---------------------------|
|--3~~~~---2-4-2---2-----2h4-------|
|--0~~~~~--------4---4-------4-2---|
|--------------------------------4-|
|----------------------------------|
  
|-15-------15-------15-----15-------15-------15-|
|----15-------15--------------15-------15-------|
|-------15-------15--------------15-------15----|
|-----------------------------------------------|
|-----------------------------------------------|

Sección media

|------8-------------------------|
|-10-8---10-8-------8-8--------8-|
|---------------9-7-----9--7-9---|
|--------------------------------|
|--------------------------------|
|--------------------------------|

|------8------12-10-8-------|
|-10-8---10-8---------10-8--|
|---------------------------|
|---------------------------|
|---------------------------|
|---------------------------|

Continuación sección media 

 A# Dm7 Gm     D
               Con wah
|-----------------------------2~~~|
|--------------------3~~------3~~~|
|--------------2~~4~~----2~~4-4~~~|
|---------------------------------|
|---------------------------------|
|---------------------------------|

Verso

  G              
|-12-12-12-12-12-----12-12-12-12-12--|
|-12-12-12-12-12-----12-12-12-12-12--|
|-12-12-12-12-12-----12-12-12-12-12--|
|------------------------------------|
|------------------------------------|
|------------------------------------|

  D
|---------------------------------------------|
|-10-10-10-10-10--------------10--------------|
|-11-11-11-11-11--------------11--2-2-3-3-4-4-|
|-12-12-12-12-12--------------12--------------|
|-12-12-12-12-12--------------12--------------|
|---------------------------------------------|

  G              
|-12---12---12-12----|
|-12---12---12-12----|
|-12---12---12-12----|
|--------------------|
|--------------------|
|--------------------|

  D
|-----------------------------|
|-10-10--------10-10-10-10-10-|
|-11-11--------11-11-11-11-11-|
|-12-12--------12-12-12-12-12-|
|-12-12--------12-12-12-12-12-|
|-----------------------------|

Puente  al coro

  D#dim7
|-2----------|
|-1----------|
|-2----------|
|-1----------|
|------------|
|------------|

Coro

  Em  F#m
|-7---9-----|
|-8---10----|
|-9---11----|
|-9---11----|
|-7---9-----|
|-----------|

  F#m Fm  Em        A7
|-9---8---7---------5--|
|-10--9---8---------5--|
|-11--10--9---------6--|
|-11--10--9---------5--|
|-9---8---7---------7--|
|-------------------5--|

Outro

  D    Gm7  F#m7   Em
|-2-2--3-3--2-2----0~~~|
|-3-3--3-3--2-2----0~~~|
|-2-2--3-3--2-2----0~~~|
|-0-0--3-3--2-2----2~~~|
|------5-5--4-4----2~~~|
|------3-3--2-2----0~~~|

  A7   
|-5-5--5---5-5--5-----|
|-5-5--5---5-5--5-----|
|-6-6--6---6-6--6-----|
|-5-5--5---5-5--5-----|
|-7-7--7---7-7--7-----|
|-5-5--5---5-5--5-----|
  
  D      Dmaj7
|-5-5----5~~~~~~|
|-7-7----7~~~~~~|
|-7-7----6~~~~~~|
|-7-7----7~~~~~~|
|-5-5----5~~~~~~|
|---------------|
Suggest correction
What's this?
You can suggest a correction to this tab. Community and Mods will review your correction and vote to approve or reject it.
comments
We did not receive enough feedback on this tab! Please rate:
print report bad tab
1 2 3 4 5
guest
You may want to rate the tab now too:
select rating
Please do not post tabs as comments. Select "correction" instead!